Oops, an error
Loading. Please wait.

Me Duele Amarte Tab

version 1
version 1

Whole song

Interactive

by Reik
32,996 views 30 this week
1 commentread comment
1 2 3 4 5
excellent!
x 16
add to favorites
launch autoscroll
font size
0
reset
how to read this tab
guitar tuner
Tab Pro tools
  • play this tab
  • loop segment
  • change instrument
  • show fretboard
  • metronome
Autoscroll
slow
fast
+/-
esc
set tempo
stop
Contributor
Difficulty
Tuning
intermediate
E A D G B E
Me Duele Amarte - Reik

Capo 1
e|-----------------------------------|
B|-----------------------------------|
G|-----5-6-6/8--------6/8--8/10/8-6--|
D|-6/8----------3/5-8----------------|
A|-----------------------------------|
E|-----------------------------------|

(Rápido)
e|------------------|
B|---6---7---6--4---|
G|-6---6---6------6-|
D|------------------|
A|------------------|
E|------------------|
              C
Me Duele Amarte
       G              Am
Sabiendo Que ya Te perdí
      Em                F
Tan Solo Quedara la Lluvia
                C                   G
Mojando mi Llanto y me hablara de ti
             C
Me Duele Amarte
       G                 Am
Los Sueños Que eran para ti
        Em                F
Se pierden con cada palabra
             C                     G
Con cada Momento que espere de Vivir...
           Am
Me duele mas imaginar
           Em
Que tú te vas y dejaras
          F                         G
Detrás de ti, Tu ausencia en mis brazos
           Am
Me Duele Tanto sospechar
            Em
Que ni tu sombra Volverá
                   F           G
Para abrigar mi alma en pedazos...
      C       G    Am    Em      F
Me duele amarte así, hasta morir
                 C               G
Lanzándome a la nada viéndote partir
      C     G       Am     Em      F
Me duele aquel abril, cuando te vi.
                   C                  G
por vez primera y dije que eras para mi
                 C
me duele amarte tanto...

e|--------------------------------------------------------------|
B|--------------------------------------------------------------|
G|-----5-6-6/8--------6/8--8/10-8-6---6-8/10-8-------8-8/10--6--|
D|-6/8----------3/5-8---------------8----------3/5-8------------|
A|--------------------------------------------------------------|
E|--------------------------------------------------------------|

e|------------------|
B|---6---7---6--4---|
G|-6---6---6------6-|
D|------------------|
A|------------------|
E|------------------|

             C
Me Duele Amarte
       G                 Am
Los Sueños Que eran para ti
        Em                F
Se pierden con cada palabra
             C                     G
Con cada Momento que espere de Vivir...
           Am
Me duele mas imaginar
           Em
Que tu te vas y dejaras
          F                         G
Detras de ti, Tu ausencia en mis brazos
           Am
Me Duele Tanto sospechar
            Em
Que ni tu sombra Volvera
                   F           G
Para abrigar mi alma en pedazos...
      C       G    Am    Em      F
Me duele amarte asi, hasta morir
                 C               G
lansandome a la nada viendote partir
      C     G       Am     Em      F
Me duele aquel abril, cuando te vi
                   C                  G
por vez primera y dije que eras para mi
                 C
me duele amarte tanto...
comments
print report bad tab
1 comment total.
0 reply
Gabysguitar wrote on June 25 2007, 11:57 am

Good tab, I follow the song is really good:contact me:gabys2guitar@yahoo.com

I want to post or [tab]
guest
You may want to rate the tab now too:
select rating
Please do not post tabs as comments. Select "correction" instead!