Oops, an error
Loading. Please wait.

Me Duele Amarte Tab

version 2
version 2

Whole song

Interactive

by Reik
4,596 views 1 this week
no commentswrite comment
1 2 3 4 5
3 more votes to show rating
add to favorites
launch autoscroll
font size
0
reset
how to read this tab
guitar tuner
Autoscroll
slow
fast
+/-
esc
set tempo
stop
Help us to improve Ultimate-Guitar.com Take our survey!
×
Author
Difficulty
Capo
novice
1st fret
With Capo on 1
or Tune to F A# D# g# c f

Intro: One guitar plays chords while the other plays riff

   C   G     Am  G             F            G
 f|----------------------------------------------------------|
 c|-5-5-3-5-6-5----------------------------5-3---3-5-3-6-3-5-|
g#|---------------5-----2/4-4/5-----7---4-7-----5------------|
D#|-----------------5/7---------5/7---5----------------------|
A#|----------------------------------------------------------|
 F|----------------------------------------------------------|


*********************** Riff ****************************************

Riff 1
     C5      G5     Am5      G5        F            G5
e|-------|-------|-------|-------|-----1----|-----3--3--3--5-|
b|---3---|---3---|---5---|---3---|---1---1--|---3-----3--3-5-|
g|----5--|----4--|----5--|----4--|----2---2-|----4-----4--4--|
D|--5--5-|--5--5-|--5--5-|--5--2-|--3---3---|--5-------------|
A|-3-----|-------|-------|-------|----------|----------------|
E|-------|-3-----|-5-----|-3-----|-1--------|-3--------------|

Riff 2
e|------------------------------------------------------------------|
b|-------------------------------------------------0-3----6-5-3-1-1-|
g|-5-4-2--4-2-0---2-2----4-2-4--5-4-2--4-2-0---2-2-------5----------|
D|-5------5------3-3-3--5-5-5---5------5------3-3-------5-----------|
A|------------------------------------------------------------------|
E|------------------------------------------------------------------|

Riff 3
e|--------------------------------------------------------------|
b|--------------------------------------------------------5-6-5-|
g|----2h4-4h5-5h7-4-7-7h9-7-7-5-----4h5-7h9-7-4-7-9-7-5--5-5-5--|
D|-5h7-----------5---------------5h7---------5------------------|
A|--------------------------------------------------------------|
E|--------------------------------------------------------------|


Verse I

           C
Me duele amarte
 G                     Am
sabiendo que ya te perdido
     G                F             Em
tan solo quedara la lluvia mojando mi llanto
                 F      G
y me hablara de ti


Verse 2

C       Riff 1
Me duele amarte
     G                    Am
los sueños que eran para ti
    G                  F
se pierden con cada palabra
          Em                   F     G
con cada momento que espere vivir


Pre-Chorus

             Riff 2
          Am
Me duele mas imaginar
           G
que tu te vas y dejaras
           F                 C
detras de ti tu usencia mi brazos
          Am
me duele tanto sopechar
           G
que ni ti sombra volvera
          F                G
para Brillar mi alma en pedazos


Chorus
    C      G      Am
Me duele amarte asi
    G    F              Em
hasta morir lanzandome a la nada
             F         G
viendote partir
    C      G      Am
me duele aquel abril
     G     F
cuando de ti por vez primera
   Em                 F       G
y dije que eras para mi
                                        Riff 3
                 C       G       Am     G     F     G
me duele amarte tanto... Ouh ouh uhmm uhmmmm


Verse 3

           Riff 1
           C
Me duele amarte
     G                    Am
los sueños que eran para ti
     G                 F
se pierden con cada palabra
            Em               F         G
con cada momento que espere vivir

(Aqui va el pre-oro y luego coro de nuevo)


Outro

     C     G     C
Me duele amarte tanto...
Suggest correction
Give kudos to tab author, rate the tab!
1 2 3 4 5
comments
print report bad tab
guest
You may want to rate the tab now too:
select rating
Wanna post a correction for this tab? Suggest correction