Oops, an error
Loading. Please wait.

Noviembre Sin Ti Chords

version 2
version 2

Whole song

Interactive

by Reik
1,319 views 1 this week
no commentswrite comment
1 2 3 4 5
please rate
add to favorites
launch autoscroll
font size
0
reset
transpose
0
reset
simplify chords
display chords
guitar tuner
Autoscroll
slow
fast
+/-
esc
set tempo
stop
Help us to improve Ultimate-Guitar.com Take our survey!
×
Author
Song: Noviembre Sin ti
Artist: Reik

Para esta tab, use como mi base la tab echa por 'breaking13', pero le hice
bastantes cambios. Mas q nada la forma de tocar esta cancion la saque de 
'Cucho' en Youtube, y pues a mi me suena mejor. Si quieren ver como se toca
la cancion, busquen a cucho en youtube. Su canal se llama 'Cuchocovers'. yo
tambien pronto voy a hacer mi propio canal de youtube.

INTRO:

  Dm              Fmaj7      C        G
e|-1-1-1-0-0-0-0----------|-------------3-3----|
B|-3-3-3-3-3-3-3--1-1--xx-|-111111111---3-3----|
G|-2-2-3-2-2-2-2--2-2--xx-|--------------------|
D|----------------3-3--xx-|-222222222----------|
A|------------------------|-333333333---2-2----|
E|------------------------|-------------3-3----|

   Dm             Fmaj7     C           G
e|-1-1-1-0-0-0-0----------|-------------------------3-3-3-3--|
B|-3-3-3-3-3-3-3--1-1--xx-|-111111111---1-1-1-0-0-0----------|
G|-2-2-3-2-2-2-2--2-2--xx-|----------------------------------|
D|----------------3-3--xx-|-222222222------------------------|
A|------------------------|-333333333---2-2-2-2-2-2-2-2-2-2--|
E|------------------------|-------------3-3-3-3-2-3-3-3-3-3--|

    C                   G                  Am               Em
La tarde se aleja, el cielo esta gris, la noche aparece sin ti,
     F                    C                     G
Callado en la playa, te lloro en silencio otra vez.
     C                   G              Am                    Em
Me ahoga esta pena, no puedo vivir, las olas no me hablan de ti,
    F                    C                   G
Sentado en la arena, escribo tu nombre otra vez

PRECHORUS:

               Dm            Fmaj7
Por que te extraño, desde aquel noviembre,
        C
Cuando soñamos juntos a querernos siempre.
    Dm           Fmaj7
Me duele, este frío noviembre,
        C                  G
Cuando las hojas caen a morir por siempre.

CHORUS:

   C                    G
Noviembre sin ti es sentir que la lluvia,
    Am                Em
Me dice llorando que todo acabó.
   C                   G
Noviembre sin ti es pedirle a la luna,
      Am                   Em               F           G
Que brille en la noche de mi corazón  otra vez,   otra vez.

  Dm              Fmaj7      C        G
e|-1-1-1-0-0-0-0----------|-------------3-3----|
B|-3-3-3-3-3-3-3--1-1--xx-|-111111111---3-3----|
G|-2-2-3-2-2-2-2--2-2--xx-|--------------------|
D|----------------3-3--xx-|-222222222----------|
A|------------------------|-333333333---2-2----|
E|------------------------|-------------3-3----|

   Dm             Fmaj7     C           G
e|-1-1-1-0-0-0-0----------|-------------------------3-3-3-3--|
B|-3-3-3-3-3-3-3--1-1--xx-|-111111111---1-1-1-0-0-0----------|
G|-2-2-3-2-2-2-2--2-2--xx-|----------------------------------|
D|----------------3-3--xx-|-222222222------------------------|
A|------------------------|-333333333---2-2-2-2-2-2-2-2-2-2--|
E|------------------------|-------------3-3-3-3-2-3-3-3-3-3--|


    C                   G               Am                          Em
Quisiera decirte, que quiero volver, tu nombre me he escrito en mi piel
      F                 C                   G
Ya es de madrugada, te sigo esperando otra vez.

PRECHORUS:

               Dm            Fmaj7
Por que te extraño, desde aquel noviembre,
        C
Cuando soñamos juntos a querernos siempre.
    Dm           Fmaj7
Me duele, este frío noviembre,
        C                  G
Cuando las hojas caen a morir por siempre.

CHORUS:

   C                    G
Noviembre sin ti es sentir que la lluvia,
    Am                Em
Me dice llorando que todo acabó.
   C                   G
Noviembre sin ti es pedirle a la luna,
      Am                   Em               F           G
Que brille en la noche de mi corazón  otra vez,   otra vez.

CHORUS:

   C                    G
Noviembre sin ti es sentir que la lluvia,
    Am                Em
Me dice llorando que todo acabó.
   C                   G
Noviembre sin ti es pedirle a la luna,
      Am                   Em               F           G
Que brille en la noche de mi corazón  otra vez,   otra vez.

OUTRO:

  Dm              Fmaj7      C        G
e|-1-1-1-0-0-0-0----------|-------------3-3----|
B|-3-3-3-3-3-3-3--1-1--xx-|-111111111---3-3----|
G|-2-2-3-2-2-2-2--2-2--xx-|--------------------|
D|----------------3-3--xx-|-222222222----------|
A|------------------------|-333333333---2-2----|
E|------------------------|-------------3-3----|

   Dm             Fmaj      C           G
e|-1-1-1-0-0-0-0----------|-------------------------3-3-3-3------|
B|-3-3-3-3-3-3-3--1-1--xx-|-111111111---1-1-1-0-0-0-----------1--|
G|-2-2-3-2-2-2-2--2-2--xx-|--------------------------------------|
D|----------------3-3--xx-|-222222222-------------------------2--|
A|------------------------|-333333333---2-2-2-2-2-2-2-2-2-2---3--|
E|------------------------|-------------3-3-3-3-2-3-3-3-3-3------|

Pues alli esta chavos, disfruten!
Suggest correction
Give kudos to tab author, rate the tab!
1 2 3 4 5
comments
print report bad tab
guest
You may want to rate the tab now too:
select rating
Please do not post tabs as comments. Select "correction" instead!