Oops, an error
Loading. Please wait.

Qué Vida La Mía Tab

version 1
version 1

Whole song

Interactive

by Reik
28,601 views 12 this week
no commentswrite comment
1 2 3 4 5
accurate
x 4
add to favorites
launch autoscroll
font size
0
reset
how to read this tab
guitar tuner
Tab Pro tools
  • play this tab
  • loop segment
  • change instrument
  • show fretboard
  • metronome
×
Best way to learn
"Qué Vida La Mía"
Autoscroll
slow
fast
+/-
esc
set tempo
stop
Difficulty
intermediate
QUE VIDA LA MIA:REIK

Por, Fernie Soto


e|-----x--------x--0x-----------x----x--0--x--0x -----|
B|-----x--------x—-2x---2/3-2---x----x--0--x—-2x -----|
G|--4--x-----4--x--2x---2-----4-x-4--x--2--x--2x -----| uhh Um Um
D|--2--x-----2--x--2x---2-----2-x-2--x--2--x--2x -----|
A|--0--x--0--0--x--0x---0-----0-x-0--x--0--x--0x -----|
E|-----x-P.M----x-------x-------x----x---x--x--x -----|


e|-----x--------x--0x-----------x----x--0--x--0x -----|
B|-----x--------x—-2x---2/3-2---x----x--0--x—-2x -----|
G|--4--x-----4--x--2x---2-----4-x-4--x--2--x--2x -7---|
D|--2--x-----2--x--2x---2-----2-x-2--x--2--x--2x -----|
A|--0--x--0--0--x--0x---0-----0-x-0--x--0--x--0x -----|
E|-----x-P.M----x-------x-------x----x---x--x--x -----|


   Intro                                          F#m
     Me despierto en la mañana para verte pasar
                                            Bm
     y tenerte en mi mente por el resto del día,
         E
     que vida la mía.
        A                                        F#m
       Aún no se tu nombre y ya eres dueña de mí
                                        Bm
     y me paso todo el tiempo imaginando tu risa,
         E
     que vida la mía.

Pre chorus:
          D                  E                         F#m
     Y no se que hacer para ser el aire que va a tu alrededor y
         E
     acaricia tu piel.

Chorus:

            D
     Solo quiero conversar, solo quiero conocerte,
     C#m/D
     dame un poco de tu tiempo para convencerte.
     F#m              C#m/D         D                  G   D
     Yo solo quiero ser tu amigo     y me muero por salir contigo.
     D                                    C#m/D
     Dame una señal, solo dame una mirada,
                                           F#m
     si estás a mi lado a mi no me importa nada.
       F#m                      C#m/D      D                  G   D
     Ya quiero estar entre tus brazos y me muero por probar tus labios
     D       C#m/D   Bm    Bm  C#m/D   D    C#m/D     E
     Rojos, llenos de ti,                   solo   dime que si.


e|-----x--------x--0x-----------x----x--0--x--0x -----|
B|-----x--------x—-2x---2/3-2---x----x--0--x—-2x -----|
G|--4--x-----4--x--2x---2-----4-x-4--x--2--x--2x -7---|
D|--2--x-----2--x--2x---2-----2-x-2--x--2--x--2x -----|
A|--0--x--0--0--x--0x---0-----0-x-0--x--0--x--0x -----|
E|-----x-P.M----x-------x-------x----x---x--x--x -----|


     Intro                                          F#m
     Me desvelo en las noches para pensar en ti
                                                       Bm
     y si duermo sólo sueño solo sueño con tener tus caricias,


         E
     que vida la mía.
         Intro                                   F#m
            Tengo todo este amor y solo es para tí
                                            Bm
     y yo solo me conformo con mirarte otro día,
         E
     que vida la mia.

e|-----x--------x--0x-----------x----x--0--x--0x -----|
B|-----x--------x—-2x---2/3-2---x----x--0--x—-2x -----|
G|--4--x-----4--x--2x---2-----4-x-4--x--2--x--2x -----| uhh Um Um
D|--2--x-----2--x--2x---2-----2-x-2--x--2--x--2x -----|
A|--0--x--0--0--x--0x---0-----0-x-0--x--0--x--0x -----|
E|-----x-P.M----x-------x-------x----x---x--x--x -----|


e|-----x--------x--0x-----------x----x--0--x--0x -----|
B|-----x--------x—-2x---2/3-2---x----x--0--x—-2x -----|
G|--4--x-----4--x--2x---2-----4-x-4--x--2--x--2x -7---|
D|--2--x-----2--x--2x---2-----2-x-2--x--2--x--2x -----|
A|--0--x--0--0--x--0x---0-----0-x-0--x--0--x--0x -----|
E|-----x-P.M----x-------x-------x----x---x--x--x -----|

Fin,
comments
print report bad tab
I want to post or [tab]
guest
You may want to rate the tab now too:
select rating
Please do not post tabs as comments. Select "correction" instead!