Oops, an error
Loading. Please wait.

Sabes Chords

version 1
version 1

Whole song

Interactive

by Reik
142 views 15 this week
no commentswrite comment
1 2 3 4 5
3 more votes to show rating
add to favorites
launch autoscroll
font size
0
reset
transpose
0
reset
display chords
guitar tuner
Autoscroll
slow
fast
+/-
esc
set tempo
stop
Help us to improve Ultimate-Guitar.com Take our survey!
×
Author
Difficulty
Capo
intermediate
1st fret
Tabbed by: Gallardo Productions

Tuning: Standard

[intro]

       Bm             G              D              A
e|-------------|--------------|-------0------|----------------|
B|--------2----|--------------|---------3----|-------0--------|
G|----------4--|---------2--0-|----2---------|---------2------|
D|-----4-------|------0-------|--0-----------|----2-----------|
A|--2----------|--------------|--------------|--0-------------|
E|-------------|---3----------|--------------|----------------|


       Bm             G             A 
e|-------------|--------------|----------------|
B|--------2----|--------------|------0---------|
G|----------4--|---------2--0-|--------0--2----|
D|-----4-------|------0-------|----2-----------|
A|--2----------|--------------|-0--------------|
E|-------------|---3----------|----------------|

[Verso]

  D                G
Sabes no pido nada más   
                    D
que estar entre tus brazos
                   G   
Y huir de todo el mal 
                  Em
Que ha todo he renunciado
        A
por estar junto a ti...

   D                G
Sabes no dejo de pensar
               D
que estoy enamorado
                G
te quiero confesar
    Bm             Em     
que soy solo un esclavo
        D
que no sabe vivir sin ti


[Coro]

Bm     G        D
Cuando llegaste tú
      A          Bm
te metiste en mi ser
      G       D
Encendiste la luz
       A       Em
me llenaste de fe
                 G
tanto tiempo busque
                    Em
pero al fin te encontré
        D         A
tan perfecta como te imagine no


Bm     G            D
Como aguja en un pajar
       A        Bm
te busque sin cesar
      G            D
como huella en el mar
     A          Em
tan difícil de hallar
                 G
tanto tiempo busque
                    Em
pero al fin te encontré
         D   A
tan perfecta como te imagine

      Bm           G          D           A
e|------------|----------|------0---|------------|
B|-------2----|----------|--------3-|-------0----|
G|---------4--|-----2h0--|----2-----|---------2--|
D|-----4------|---0------|--0-------|-----2------|
A|---2--------|----------|----------|---0--------|
E|------------|-3--------|----------|------------|

      Bm           G          D           A
e|------------|----------|------0---|------------|
B|-------2----|----------|--------3-|---2--------|
G|---------4--|-----2h0--|----2-----|---2--------|
D|-----4------|---0------|--0-------|---2--------|
A|---2--------|----------|----------|---0--------|
E|------------|-3--------|----------|------------|

[verso]

 D                   G
Sabes te quiero confesar
                        D
que te encuentro irresistible
              G
no dejo de pensar
     Bm          Em       D
que haría lo imposible
        A
por quedarme cerca de ti


[coro]

Bm     G        D
Cuando llegaste tú
      A          Bm
te metiste en mi ser
      G       D
Encendiste la luz
       A       Em
me llenaste de fe
                 G
tanto tiempo busque
                    Em
pero al fin te encontré
        D         A
tan perfecta como te imagine no


Bm     G            D
Como aguja en un pajar
       A        Bm
te busque sin cesar
      G            D
como huella en el mar
       A          Em
tan difícil de hallar
                 G
tanto tiempo busque
                    Em
pero al fin te encontré
         D           A
tan perfecta como te imagine


      Bm           G          D           A
e|------------|----------|------0---|------------|
B|-------2----|----------|--------3-|---2--------|
G|---------4--|-----2h0--|----2-----|---2--------|
D|-----4------|---0------|--0-------|---2--------|
A|---2--------|----------|----------|---0--------|
E|------------|-3--------|----------|------------|


[final]

  D                   G                  A   D
Sabes no pido nada mas que estar entre tus   brazos









09-29-16
Suggest correction
Give kudos to tab author, rate the tab!
1 2 3 4 5
comments
print report bad tab
guest
You may want to rate the tab now too:
select rating
Wanna post a correction for this tab? Suggest correction