Oops, an error
Loading. Please wait.

Vuelve Tab

version 2
version 2

Whole song

by Reik
252 views 1 this week
no commentswrite comment
1 2 3 4 5
please rate
add to favorites
launch autoscroll
font size
0
reset
how to read this tab
guitar tuner
Autoscroll
slow
fast
+/-
esc
set tempo
stop
Help us to improve Ultimate-Guitar.com Take our survey!
×
Author
Difficulty
intermediate
Solo Corregí la tablatura de (Autor:Jesus Navarro/julio Ramirez) que tiene una buena 
tablatura, pero esta es más correcta :)
NO HICE TODO SOLO, todo el credito va a ese autor que puso MUCHO mas tiempo
hacerlo que yo. :)

Artista: Reik
Cancion: Vuelve
Tablatura: Danny North

INTRO:


e----------------------------------------------------------------|
B-0---1/3--1------1--0h1p0----0---0-3---5--1-----0-1-0h1p0-----0-|
G-0-----------------------2---0--0----0---------2----------2---0-|
D--0--2/4--2------1-------------0---4---5--2-------1-------------|
A----------------------------------------------------------------|
E-3----------3-3--------------3--------------3-----------------3-|

e---------------|
B---------------|
G-2/4--2p0------|
D----------2p0--|
A---------------|
E---------------|

x: silenciar con la palma de la mano

e----x-----------------x----------------x------------------|
B-0--x-0-------0----0--x--0-------0--0--x-0-------0----1^--|
G-0--x-0-----0------0--x--0-----0----0--x-0-----0------2|--|
D--0-x-----0---------1-x------1-------2-x-----2--------3|--|
A----x---2-------------x----2-----------x---2----------3|--|
E-3--x-3------------3--x--3----------3--x-3------------1|--|
 Sigo buscando el porque te fuiste de aqui dejando un abismo

e----------------------------------------------------------|
B------3^----3h5-------5-------------3-----3---------------|
G------2|----------4-------4-------------0----0------------|
D------0|--------5---5---5---5---------4------2------------|
A------2|----3-----------------------2---------------------|
E---------------------------------------------0------------|
 entre tu y yo no te he podido olvidar    y no se si a

e-----------------------------|
B---------1---------------4---|
G-------0---------0-----2---2-|
D-----2---------2-----5-------|
A---0---------3-----3---------|
E-----------3-----------------|
  ti    te pase lo mismo

e-------------------------------------------------------------|
B-3-------3-----3----0--------0-----0------0^------0----------|
G-0---0-------0------0---0--------0--------0|--0-----0--------|
D---0---0---0----------1---1----1----------2|----2-----2------|
A------------------------------------------2|------------2----|
E-3------------------3---------------------3|-----------------|
 Toda mi vida   cambio     me falta tu amor       siento que


e---------------------------------------------------------------|
B---1^-------3^-------3h5-------5---------------3-----3---------|
G---2|-------2|-------------4-------4---------------0-----------|
D---3|-------0|-----------5---5---5---5-----------4-------------|
A---3|-------2|-------3-------------------------2---------------|
E---1|----------------------------------------------------------|
  pierdo   la razón  y hoy te he vuelto a llorar

e------------------------------------3p2--|
B------------------1---------------3------|
G-0--------------0---------0-----2--------|
D-2------------2---------2-----0----------|
A------------0---------3------------------|
E-0------------------3--------------------|
 Porque sin ti no aprendo a vivir



CORO:

e-3----3------------0---2-0h2p0-----------------------|
B-1--1-1---3----1-------3-1-----------1-----1-0-----0-|
G---0----0---2------------------------0---0-------0---|
D--2-----2---0----2-----0-0-------------2-------0-----|
A-3----3---2----0-------------------------------------|
E-------------------------------------3-------3-------|
  Vuelve     quiero sentirme en tus brazos

e-0--x---------------------------------------3-2--------------------|
B-1--x--3------------------0-1-------------1-----1-----1-----1-0^---|
G---0x--0----0-------------0-0-------0---2---------2---0---0---0|-0-|
D---2x-----4---4---------2---------2---0-------------0---2-----0|-0-|
A-3--x--2--------------0---------3---------------------3-------2|---|
E----x-------------------------3-------------------------------3|---|
Quiero besarte en los labios      por siempre quedarme a  tu  lado

e-3----3------------0---3~~---------------------------|
B-1--1-1---3----1-------1~~-----------1-----1-0-----0-|
G---0----0---2------------------------0---0-------0---|
D--2-----2---0----2-----0~~-------------2-------0-----|
A-3----3---2----0-------------------------------------|
E-------------------------------------3-------3-------|
 Vuelve        sabes que tu me haces falta

e-0--x-------0-------0--------------------------------3-2-----|
B-1--x-----------0-------0------------1-------1-----1---------|
G----x-0--0----0---0---0---0--------0-------------2-----------|
D--2-x-2-2------------------------2---------2---0-------------|
A-3--x-2-----4------------------0---------3-------------------|
E----x-0--------------------------------3---------------------|
La espera es cruel y lastima  vuelve          llena de amor mi

INTRO:
e----------------------------------------------------------------|
B-0---1/3--1------1--0h1p0----0---0-3---5--1-----0-1-0h1p0-----0-|
G-0-----------------------2---0--0----0---------2----------2---0-|
D--0--2/4--2------1-------------0---4---5--2-------1-------------|
A----------------------------------------------------------------|
E-3----------3-3--------------3--------------3-----------------3-|

e---------------|
B---------------|
G-2/4--2p0------|
D----------2p0--|
A---------------|
E---------------|



e----x-----------------x----------------x------------------|
B-0--x-0-------0----0--x--0-------0--0--x-0-------0----1^--|
G-0--x-0-----0------0--x--0-----0----0--x-0-----0------2|--|
D--0-x-----0---------1-x------1-------2-x-----2--------3|--|
A----x---2-------------x----2-----------x---2----------3|--|
E-3--x-3------------3--x--3----------3--x-3------------1|--|
 Como sacarme este  amor que ahora es dolor tal vez olvidarte

e--------------------------------------------------------------|
B-3^----3h5-------5------------3-----3--------------1----------|
G-2|----------4-------4------------0---0----------0---------0--|
D-0|--------5---5---5---5--------4-----2--------2---------2----|
A-2|----3----------------------2--------------0---------3------|
E--------------------------------------0--------------3--------|
 Sea mejor pero no puedo engañar a este corazón que espera por

e---------3-2---|
B-------3-------|
G-----2---------|
D---0-----------|
A---------------|
E---------------|
   ti


CORO:

e-3----3------------0---2-0h2p0-----------------------|
B-1--1-1---3----1-------3-1-----------1-----1-0-----0-|
G---0----0---2------------------------0---0-------0---|
D--2-----2---0----2-----0-0-------------2-------0-----|
A-3----3---2----0-------------------------------------|
E-------------------------------------3-------3-------|
  Vuelve     quiero sentirme en tus brazos


e-0--x-----------------------------------3-2---------------------|
B-1--x--3--------------0-1-------------1-----1-----1-----1-3---3-|
G---0x--0----0---------0-0-----0-----2---------2---0---0---2--2--|
D---2x-----4---4-----2-----------2-0-------------0---2-------0---|
A-3--x--2----------0---------3---------------------3-------2-----|
E----x---------------------3-------------------------------------|
Quiero besarte en los labios  por siempre quedarme a  tu  lado

e-3----0------------0---3~~----------------------------|
B-1--1-1---3----1-------1~~-----------1-----1-0-----0--|
G---0----0---2------------------------0---0-------0----|
D--2-----2---0----2-----0~~-------------2-------0------|
A-3----3---2----0--------------------------------------|
E-------------------------------------3-------3--------|
 Vuelve        sabes que tu me haces falta

e-0--x--------0-------0--------------------------------3-2-----|
B-1--x------------0-------0------------1-------1-----1---------|
G----x-0--0-----0---0---0---0--------0-------------2-----------|
D--2-x-2-2-2-----------------------2---------2---0-------------|
A-3--x-2------4------------------0---------3-------------------|
E----x-0---------------------------------3---------------------|
La espera es cruel y lastima  vuelve          llena de amor mi


e--5---------------------0----------------------0------------|
B--3-----------0-3-1-------3-----3-1---------------4~--------|
G--2---2---0-2---------0---2---2-------0------0----2~--------|
D--0-0---0----------2-------0-------2---2---2------5~--------|
A------------------3-------2-------3-------3-------3~--------|
E----------3-------------------------------------------------|
  vida            vuelve         llena de amor      mi vida

FINAL:

e---------------------------------------------------|
B-0---1/3--1-----0-1-0h1p0-----0----------------0---|
G-0-------------2----------2---0--2/4-2p0-------0---|
D--0--2/4--2-------1----------------------2p0---0---|
A-----------------------------------------------2---|
E-3----------3-----------------3----------------3---|
Suggest correction
What's this?
You can suggest a correction to this tab. Community and Mods will review your correction and vote to approve or reject it.
comments
We did not receive enough feedback on this tab! Please rate:
print report bad tab
1 2 3 4 5
guest
You may want to rate the tab now too:
select rating
Please do not post tabs as comments. Select "correction" instead!