Oops, an error
Loading. Please wait.

Absentismo Laboral tab

44 views 3 this week
no commentswrite comment
1 2 3 4 5
3 more votes to show rating
add to favorites
×
Save as Personal and add changes to this tab that will be seen only by you. Learn more ›
×
You can save this tab as Personal to edit and correct it or add notes. All changes will be seen only by you. Learn more »
launch autoscroll
font size
0
reset
how to read this tab
guitar tuner
edit
Autoscroll
slow
fast
+/-
esc
set tempo
stop
Intro
-----

E|-----------------------------------------------------------|
B|-----------------------------------------------------------|
G|----------------------------4------------------------------|
D|----------2--------4--------4--------2---------------------|
A|----4-2---2--4-2---4--4-2---2--4-2---2-----2-4-2-----------|
E|--------4-0------4-2------4--------4-0---4-------4---------|

Estrofa
-------
    E                 F#
Entrando a las 7 la mañana
   B                    E   lick 1
un lunes y empieza la semana
    E
con mi montera mi capote
 F#
vestido de torero
B          E
ey ey toro aki te espero


Estribillo:
----------
A                E6        F#         B
No te vendas por un jornal absentismo laboral
no te vendas por un jornal dale caña al capital

Solo:
-----
E|----------------------------------------------------------12-11-|
B|--12-0-0-13-0-0-12-0-0-13-0-0-12-0-0-13-0-0-12-0-0-13-0-0-------|
G||
D||
A||
E||

E|----------------------------------------------------------|
B|--10-0-0-12-0-0-10-0-0-12-0-0-10-0-0-12-0-0-10-0-0-12-0-0-|
G|----------------------------------------------------------|
D||
A||
E||

E||---------------12-12--|
B||-12-10----------------|
G||-------13-11-9--------|
D||----------------------|
A||----------------------|
E||----------------------|


Solo 2:(peaso pasodoble)
-------

E|-----------------------------------------|
B|-------9---------12-10----9-10-9---------|
G|--9~-11--11-9-8-8------11--------11-9----|
D|-----------------------------------------|
A|-----------------------------------------|
E|-----------------------------------------|

                                  E6 B B G# G# E
|------12-----------------------12-12--------------|
|---12----12-12-12---12-12---12------12-12---------|
|-----------------13------13--------------13-13----|
|----------------------------------------------14--|
|--------------------------------------------------|
|--------------------------------------------------|

            
            
Suggest correction
Creating personal tab
Creating personal tab
You can edit any tab online and save it as your Personal.

You can edit, replace or remove any tab part or add personal notes – all changes will be seen only by you.

Personal tabs can be accessed anytime from any device, even offline.
Learn more »
Give kudos to tab author, rate the tab!
1 2 3 4 5
comments
print report bad tab
guest
Wanna post a correction for this tab? Suggest correction