Oops, an error
Loading. Please wait.

Ay Dolores! tab

version 2
version 2

Whole song

175 views 9 this week
no commentswrite comment
1 2 3 4 5
3 more votes to show rating
add to favorites
×
Save as Personal and add changes to this tab that will be seen only by you. Learn more ›
×
You can save this tab as Personal to edit and correct it or add notes. All changes will be seen only by you. Learn more »
launch autoscroll
font size
0
reset
how to read this tab
guitar tuner
edit
Autoscroll
slow
fast
+/-
esc
set tempo
stop
      Dm     Am      A#     F       G      D       E6
E|-------------------------6-6-6--5-5-5--------------------|
B|---6-6-6--5-5-5--3-3-3--8-8-8--6-6-6---9-9-9----12--12---|
G|--7-7-7--5-5-5--3-3-3-----------------9-9-9---12--12--12-|
D|---------------------------------------------------------|
A|---------------------------------------------------------|
E|---------------------------------------------------------|
pm......................................................

Dm                             LAm
Las diez menos cuarto en el reloj
        LA#                        FA5
La noche abre su puerta en tu cabeza
                  SOL
en la tele un culebrón
                  RE
La comida en el salón
                MI6                         SOL5
esperando una sonrisa, un te quiero, una caricia

                          E|---------------------|
                          B|---------------------|
                          G|---------------------|
                          D|-0h2-2h3-2-----------| (link 1)
                          A|---------------------|
                          E|---------------------|
RE5                          LA5
Las llaves tornan gris tu habitación

                           E|---------------|
                           B|---------------|
                           G|-1/2-0---------|
                           D|-------2h3-----|    (link 2)
                           A|---------------|
                           E|---------------|
LA#5                         FA5
entrando con el odio tras sus ojos
 SOL5                       RE5
Ya no tienen su calor, el alcohol es su sabor
  MI6                           SOL5
empezando con reproches, los insultos el, desprecio
RE5                        LA5(link 1)
Y ahora no tienes nada que decir
 LA#5                             FA5(link 2)
Ya no se si soy mujer o soy una mierda
 SOL5                       RE5
su vida anda sin razón, despojada del dolor
 MI6                       SOL5
Victima de su miedo, del fracaso, de sus celos

SOL5   RE5
Ay    Dolores
 DO5
Las manos en tu espalda,
LA5
La tortura en tu mente.

SOL5   RE5
Ay    Dolores
DO5                    LA5
Con el silencio de la sociedad.

solo ( bueno solo la mitad jajajajaja)
E|---------------------------------------|
B|-10-----------10b^^^^^^10~~~-88~~~-----|
G|-12bv~~~12-12b-------------------------|
D|---------------------------------------|
A|---------------------------------------|
E|---------------------------------------|

E|-------------------------------|--------------------8--|
B|-6-5h6p5-----------------------|-----------6-5h6-------|
G|---------7h9p7--5h7p5--------5-|---------5--------7----|
D|----------------------7-5h7----|-----5h7---------------|
A|----------------------------8--|-5h8-------------------|
E|-------------------------------|-----------------------|


para mi mama Lourder galan...

 y para ti Helenaa lopez

  ALEJANDRO DEL GRUPO LA MARGEN IZKIERDA

            
            
Suggest correction
Creating personal tab
Creating personal tab
You can edit any tab online and save it as your Personal.

You can edit, replace or remove any tab part or add personal notes – all changes will be seen only by you.

Personal tabs can be accessed anytime from any device, even offline.
Learn more »
Give kudos to tab author, rate the tab!
1 2 3 4 5
comments
print report bad tab
guest
Wanna post a correction for this tab? Suggest correction