Oops, an error
Loading. Please wait.

El Comercio Del Dolor chords

22 views 1 this week
no commentswrite comment
1 2 3 4 5
3 more votes to show rating
add to favorites
×
Save as Personal and add changes to this tab that will be seen only by you. Learn more ›
×
You can save this tab as Personal to edit and correct it or add notes. All changes will be seen only by you. Learn more »
launch autoscroll
font size
0
reset
transpose
0
reset
simplify chords
display chords
guitar tuner
edit
Autoscroll
slow
fast
+/-
esc
set tempo
stop
Strumming
There is no strumming pattern for this song yet. and get +5 IQ
intro: (ojo con la dinamica de B5)

e |-----------------------------|
B |-----------------------------|
G |-4-4-4-4--4-4-4--4-4-4-------|
D |-4-4-2-4--4-2-4--4-2-4--4-4--|
A |-2-2-2-2--2-2-2--2-2-2--4-4--|
E |------------------------2-2--|

e |---------------------------------|
B |---------------------------------|
G |-4-4-4-4--4-4-4------------------|
D |-4-4-2-4--4-2-4--4-4-4-4-4-4-----|
A |-2-2-2-2--2-2-2--4-4-4-4-4-4-----|
E |-----------------2-2-2-2-2-2-----| x2

 Aborregaos por un gobierno criminal
B5     D#5           G#5         F#5 (MUTEADO)
 que necesita el terror, que huye de la paz
B5            D#5            G#5        F#5 (MUTEADO)
 Quisiera yo saber porqué cojones no lloráis
E5        F#5               D#5          G#5
 Por los cientos de niños que dejan de respirar
E5                  F#5       B5    G#5 F#5 E5
Sin apenas caminar
               F#5

 La muerte nunca se podrá justificar
B5         D#5        G#5         F#5 (MUTEADO)
 Venga de dónde venga. Está fuera de compás
B5              D#5         G#5         F#5 (MUTEADO)
¿Crees que hay masacres de primera división?
E5               F#5          D#5      G#5
¿Será que pilla cerca?¿Que pudiste  ser tú?
E5               F#5       B5   G#5 F#5 E5
 Que pudiste ser tú
                 F#5

¡¡Basta ya de comerciar con el dolor!!
  C#5              G#5
 Y envenenar el ambiente
C#5              G#5
¡¡Basta ya de derrapar con el motor
  C#5              G#5
 del pánico de la gente!!
C#5               G#5

 Porqué no lloráis por los millones de inocentes
B5            D#5            G#5          F#5
 de Argelia, de Ruanda, de Irak, de Afganistán.
B5           D#5             G#5          F#5

 Porqué no lloráis por palestinos y africanos
E5            F#5            D#5         G#5
 víctimas del sida, guerra, miseria, o temporal,
E5            F#5             B5       G#5 F#5 E5
por las mujeres maltratás
                      F#5

¡¡Basta ya de especular con el terror
  C#5              G#5
 ya tenemos suficiente!!
C#5             G#5
¡¡Basta ya de retorcer la información
  C#5              G#5
 pá llegar a presidente!!
C#5               G#5

e |--------------------------------------------|
B |--------------------------------------------|
G |-4-4-4-4--4-4-4--4-4-4-------4-4-4-4---4-4-4|
D |-4-4-2-4--4-2-4--4-2-4-4-4---4-4-2-4---4-2-4|
A |-2-2-2-2--2-2-2--2-2-2-4-4---2-2-2-2---2-2-2|
E |-----------------------2-2------------------|

sOLO:

(MUTEADO) B5-D#5-G#5-F#5 x2

E5-F#5-D#5-G#5  E5-F#5-B5-G#5-F#5-E5 -F#5


¡¡Basta ya de comerciar con el dolor!!
  C#5              G#5
Y envenenar el ambiente
C#5              G#5
¡¡Basta ya de derrapar con el motor
  C#5              G#5
 del pánico de la gente!!
C#5               G#5

¡¡Basta ya de especular con el terror
  C#5               G#5
 ya tenemos suficiente!!
C#5             G#5
¡¡Basta ya de retorcer la información
  C#5              G#5
 Pa llegar a presidente!!
C#5               G#5

e |-----------------------------|
B |-----------------------------|
G |-4-4-4-4--4-4-4--4-4-4-------|
D |-4-4-2-4--4-2-4--4-2-4-4-4---|
A |-2-2-2-2--2-2-2--2-2-2-4-4---|
E |-----------------------2-2---|

e |---------------------------------|
B |---------------------------------|
G |-4-4-4-4--4-4-4-----4------------|
D |-4-4-2-4--4-2-4-----4------------|
A |-2-2-2-2--2-2-2-----2------------|
E |---------------------------------|

            
            
Suggest correction
Creating personal tab
Creating personal tab
You can edit any tab online and save it as your Personal.

You can edit, replace or remove any tab part or add personal notes – all changes will be seen only by you.

Personal tabs can be accessed anytime from any device, even offline.
Learn more »
Give kudos to tab author, rate the tab!
1 2 3 4 5
comments
print report bad tab
guest
Wanna post a correction for this tab? Suggest correction