Oops, an error
Loading. Please wait.

El Inem chords

33 views 1 this week
no commentswrite comment
1 2 3 4 5
3 more votes to show rating
add to favorites
×
Save as Personal and add changes to this tab that will be seen only by you. Learn more ›
×
You can save this tab as Personal to edit and correct it or add notes. All changes will be seen only by you. Learn more »
launch autoscroll
font size
0
reset
transpose
0
reset
display chords
guitar tuner
edit
Autoscroll
slow
fast
+/-
esc
set tempo
stop
Strumming
There is no strumming pattern for this song yet. and get +5 IQ
- Ahí va una canción de Reincidentes que todavía no he
 visto por la red y que me parece indispensable.


Intro:
D-G*-F#-E*

Versos:

B
Las nueve de la mañana
D           A
Otra vez por aquí
-------------------------------------------
-------------------------------------------
-------------------------------------------
-------------------------------------------
-4/5/4---4----5----------------------------
-------7---5--7----------------------------

B
Esa gente que me mira
D            A  A#-B
Qué querrá de mí?

PUENTE:
------------------------------------------
------------------------------------------
------------------------------------------
------------------------------------------
--5-4-2-5--------5-4-2-7------------------
--------3--------------5------------------
( Estás cabreado....)

Estribillo:

                D G* F#* E*    D G* F#* E*
Si el Inem te quema        quema al inem

*:5ª cuerda

Bueno, eso es más o menos lo que salió una tarde con
 un colega(Alberto). Es pa que luego no diga que no se
 lo reconozco.

            
            
Suggest correction
Creating personal tab
Creating personal tab
You can edit any tab online and save it as your Personal.

You can edit, replace or remove any tab part or add personal notes – all changes will be seen only by you.

Personal tabs can be accessed anytime from any device, even offline.
Learn more »
Give kudos to tab author, rate the tab!
1 2 3 4 5
comments
print report bad tab
guest
Wanna post a correction for this tab? Suggest correction