Oops, an error
Loading. Please wait.

Habia Una Vez tab

41 views 1 this week
no commentswrite comment
1 2 3 4 5
3 more votes to show rating
add to favorites
×
Save as Personal and add changes to this tab that will be seen only by you. Learn more ›
×
You can save this tab as Personal to edit and correct it or add notes. All changes will be seen only by you. Learn more »
launch autoscroll
font size
0
reset
how to read this tab
guitar tuner
edit
Autoscroll
slow
fast
+/-
esc
set tempo
stop
23/4/2000
@Tab by warrior
Dedikao al Piru

                              

                              REINCIDENTES: Habia una vez
                                        ---------------------------
Esto  mas pa la koleccion del nuevo  kedan pokas por sakar...

Intro 
-----

A  F   CG

Estrofa 
-------

 
   A          F                 A          F
E|------------------------------------------------------------------|
B|------------------------------------------------------------------|
G|------------------------------------------------------------------|
D|------------------------------------------------------------------|
A|-----------------10-------10--------------------------------------|
E|------------7-8------7-8------------------7-8-10-8-7-5-3----------| 
   Un silencio                  compartido


 
   A          F                 A          F
E|------------------------------------------------------------------|
B|------------------------------------------------------------------|
G|------------------------------------------------------------------|
D|------------------------------------------------------------------|
A|-----------------10-------10--------------------------------------|
E|------------7-8------7-8------------------7-8-10-8-7-5-3----------| 
   Un arrebato                sin decidirlo


A                 F
Sentir la novedad de resultar extraño
A                 F
aquel no saber si es cierto o es engaño

Ax               Fx           CxGx
Esa electricidad que brota de las manos
Ax               Fx           CxGx
la simple oportunidad de vivir un buen rato


Estribillo:
----------
A
Instante fugaz 
C
que quieres borrar
D
pero volvera
F6
volvera 
G6
volvera

Y ya  ¿no? Pos eso, a practikarla.


                  Si no te aklaras kon algo,tienes dudas,sugerencias,krees ke esta mal 
                        o simplemente te apeteze enviar un e-mail aki estoy
                                    
                                    <warrior_g@
                  
                  o visita la sekzion de musika de mi peich
                                       
                                    <
                  ¡Hasta otra!
                                                            Warrior_

            
            
Suggest correction
Creating personal tab
Creating personal tab
You can edit any tab online and save it as your Personal.

You can edit, replace or remove any tab part or add personal notes – all changes will be seen only by you.

Personal tabs can be accessed anytime from any device, even offline.
Learn more »
Give kudos to tab author, rate the tab!
1 2 3 4 5
comments
print report bad tab
guest
Wanna post a correction for this tab? Suggest correction