Oops, an error
Loading. Please wait.

Indestructibles tab

25 views 1 this week
no commentswrite comment
1 2 3 4 5
3 more votes to show rating
add to favorites
×
Save as Personal and add changes to this tab that will be seen only by you. Learn more ›
×
You can save this tab as Personal to edit and correct it or add notes. All changes will be seen only by you. Learn more »
launch autoscroll
font size
0
reset
how to read this tab
guitar tuner
edit
Autoscroll
slow
fast
+/-
esc
set tempo
stop
Para los amantes de la buena musika y letra..!!
aka les dejo este tema..!!
si tiene algun error me corrigen xfa...

B= bend
*= nºgolpes

Intro:
-----
A* E6* B** C*(x4)

Estrofas:
--------
D                                  LA (algo palmuteado al final)
Donde puede estar la razon de la maldad

D                           FA#             Gxxx
Cual podria ser el origen del poder y la ambicion

D                                 A  (algo palmuteado al final)
Porque la pasion por la superioridad

D                                    F#        SOL
Que es lo que nos da tener cada dia mas y un poco mas


G    F#          A       B
No podemos parar nunca de pensar

G    F#           E6  6ta menor
Donde esta ese punto debil

G    F#          A        B
Estar informado señalar a quien

G     F#         E6
No se detiene ante nada

Estribillo:
----------

esta parte es igual que la intro..

A*          E6*       B**       C*
Y no bajar la guardia bajar la guardia
Y no bajar la guardia bajar la guardia
Y no bajar la guardia bajar la guardia
Y no bajar la guardia bajar la guardia


Solo:
--------

e|----------------------------|
b|----------------------------|
g|-2-4-2-7-6-4-2--2-4-2-7-6-4-|
d|----------------------------|
a|----------------------------|
e|----------------------------|

e|-----------------------------------------------|
b|------7------7-----7-----7-----7--5-7-5---5-7--|
g|-7b(9)--7b(9)-7b(9)-7b(9)-7b(9)---5-7-5-7-5-7-7|
d|----------------------------------------7-----7|
a|-----------------------------------------------|
e|-----------------------------------------------|

E|-5-7-5-10-9-7-5-7-5-10-9-10-12-10-9-10-9-7-9-7-5-7-5-4-5-4-|
B|-----------------------------------------------------------|
G|-----------------------------------------------------------|
D|-----------------------------------------------------------|
A|-----------------------------------------------------------|
E|-----------------------------------------------------------|

E|-4-----------------------------------------------|
B|7-7-5-7-5---5------------------------------------|
G|----------5--5-4-5-4--4--------------------------|
D|---------------------9--9-7-9-7-6-7-6--6---------|
A|--------------------------------------9-9-7-9-7-6|
E|-------------------------------------------------|


Kambio:
-------
D|0-0-2-0-0-4-0-0-5-0-0-2-0-0-2h5-| X2

Kambio                                       A
Suelen  camuflar  el  egoismo   de      libertad
Kambio                                           F
la  desigualdad,  en afan   de   prosperar y ser alguien


   G    F#          A       B
   Reiteramos el derecho a discrepar
   G     F#         E6
   es una mision imposible
   G    F#          A       B
   La auto critika y el saber escuxar
   G     F#         E6
   nos ara indestructibles

A*          E6*       B**       C*
Y no bajar la guardia bajar la guardia
Y no bajar la guardia bajar la guardia
Y no bajar la guardia bajar la guardia
Y no bajar la guardia bajar la guardia

Y no bajar la guardia..!!


pliz no dejen de subir temas de reincidentes
faltan muxos temas nuevos
alguien prodria sakar los acordes de revolucion ?? xD
de ante mano gracias..!!

>>Reinvindikativo..!!

            
            
Suggest correction
Creating personal tab
Creating personal tab
You can edit any tab online and save it as your Personal.

You can edit, replace or remove any tab part or add personal notes – all changes will be seen only by you.

Personal tabs can be accessed anytime from any device, even offline.
Learn more »
Give kudos to tab author, rate the tab!
1 2 3 4 5
comments
print report bad tab
guest
Wanna post a correction for this tab? Suggest correction