Oops, an error
Loading. Please wait.

La Memoria chords

47 views 1 this week
no commentswrite comment
1 2 3 4 5
3 more votes to show rating
add to favorites
×
Save as Personal and add changes to this tab that will be seen only by you. Learn more ›
×
You can save this tab as Personal to edit and correct it or add notes. All changes will be seen only by you. Learn more »
launch autoscroll
font size
0
reset
transpose
0
reset
simplify chords
display chords
guitar tuner
edit
Autoscroll
slow
fast
+/-
esc
set tempo
stop
Strumming
There is no strumming pattern for this song yet. and get +5 IQ
Los viejos amores que no están,
G                          C
la ilusión de los que perdieron,
      G                  C
todas las promesas que se van,
G                         Bm
y los que en cualquier guerra se cayeron
  Em                               C

El engaño y la complicidad
G                      C
de los genocidas que están sueltos,
G                          C
el indulto y el punto final
G                       Bm
a las bestias de aquel infierno
      Em                 C


Todo está guardado en la memoria,
Am            C            D
sueño de la vida y de la historia
Am          C               D


Los desaparecidos que se buscan
G5                C5     G5
con el color de sus nacimientos,
         G5             C5 G5  D5
el hambre y la abundancia que se juntan,
   G5                            Bm
el mal trato con su mal recuerdo
       E5                 C5

Dos mil comerían por un año
    G5           C5     G5
con lo que cuesta un minuto militar
           G5                   C5 G5  D5
Cuántos dejarían de ser esclavos
G5                        Bm
por el precio de una bomba al mar
       E5                      D5 C5

Todo está guardado en la memoria,
Am            C            D
espina de la vida y de la historia
Am          C               D


Todos los muertos de la A.M.I.A.
G5                C5    G5
y los de la Embajada de Israel,
  G5                      C5 G5  D5
el poder secreto de las armas,
     G5                 Bm
la justicia que mira y no ve
      E5                  C5

Fue cuando se callaron las iglesias,
    G5                 C5  G5
fue cuando el fútbol se lo comió todo,
              G5                 C5 G5 D5
que los padres palotinos y Angelelli
 G5                            Bm
dejaron su sangre en el lodo
   E5                   D5 C5


Todo está guardado en la memoria,
Am            C            D
refugio de la vida y de la historia
Am             C               D

La memoria despierta para herir
     G5                     D5
a los pueblos dormidos
      C5         G5
que no la dejan vivir
                  D5
libre como el viento
C5                G5

La memoria pincha hasta sangrar
     G5                     D5
a los pueblos que la amarran
      C5              G5
y no la dejan andar
                  D5
libre como el viento
C5                G5

SOLO: (base) G5-C5-G5 G5-C5-G5-D5 G5-Bm-Em-C5 x2
-------------------------------------------|
-------------------------------------------|
----7---7---7---7--------7----7---7--------|
-7b--7b--7b--7hb------7b---7b--7b---7b-5---|
-------------------------------------------|
-------------------------------------------|

-----------------------------------10--10--10--10--10--10-------------|
-10-8-8----------------------8-10b-----10b-10b-10b-10b-10b-10r.b-8----|
--------9p7----7-7~---/9-7-9------------------------------------------|
------------9b-7-7~---------------------------------------------------|
----------------------------------------------------------------------|
----------------------------------------------------------------------|

-------10-----10-----10------------12-10------------------------|
-8-10b----10b----10b----10b-8~--10b------12-10-8-10-10p8--------|
---------------------------------------------------------9------|
----------------------------------------------------------------|
----------------------------------------------------------------|
----------------------------------------------------------------|


--------------------------------------------|
--------------------------------------------|
------------7-9-11-12-11-9-11-12-12~--------|
--------7-9---------------------------------|
-/7-9---------------------------------------|
--------------------------------------------|


La bala a Chico Méndez en Brasil,
   G5                        C5
cientosincuenta mil guatemaltecos,
      G5                    C5
los mineros que enfrentan al fusil,
      G5                       B5
represión estudiantil en México
     E5                  C5

América con almas destruidas,
 G5                     C5
los chicos que mata el escuadrón,
    G5                      C5
suplicio de Mugica por las villas,
  G5                       B5
dignidad de Rodolfo Walsh
     E5                 D5 C5

Todo está cargado en la memoria,
Am            C            D
refugio de la vida y de la historia
Am             C               D

La memoria pincha hasta vencer
     G5                    D5
a los pueblos que la aplastan
      C5              G5
y que no la dejan ser
                  D5
libre como el viento
C5                G5

La memoria apunta hasta matar
     G5                    D5
a los pueblos que la callanc
      C5              G5
y que no la dejan volar
                  D5
libre como el viento
C5                G5

B5-C5-Em

            
            
Suggest correction
Creating personal tab
Creating personal tab
You can edit any tab online and save it as your Personal.

You can edit, replace or remove any tab part or add personal notes – all changes will be seen only by you.

Personal tabs can be accessed anytime from any device, even offline.
Learn more »
Give kudos to tab author, rate the tab!
1 2 3 4 5
comments
print report bad tab
guest
Wanna post a correction for this tab? Suggest correction