Oops, an error
Loading. Please wait.

Sin Reaccionar chords

17 views 1 this week
no commentswrite comment
1 2 3 4 5
3 more votes to show rating
add to favorites
×
Save as Personal and add changes to this tab that will be seen only by you. Learn more ›
×
You can save this tab as Personal to edit and correct it or add notes. All changes will be seen only by you. Learn more »
launch autoscroll
font size
0
reset
transpose
0
reset
simplify chords
display chords
guitar tuner
edit
Autoscroll
slow
fast
+/-
esc
set tempo
stop
Strumming
There is no strumming pattern for this song yet. and get +5 IQ
Yap les dejo este temazo de reincidentes que lo habian pedido
harto,no se por que nadie lo habia subido. esta con solo
y completo, cualuier duda escribanme a  @ gmail .com

intro:
C5-B5-A5-F5-E5 C5-B5-A5-F5-D5
C5-B5-A5-F5-E5 C5-B5-A5-C5-B5-A5-C5-B5-A5 C5-B5

 Unas buenas inversiones
A5                E5
dirigidas a campañas de publicidad
               F5                 C5 B5
 convierten mal en bien
A5          E5
y tocino en velocidad
    F5               G5
 estamos siguiendo el juego
A5         E5
a unos cuántos miserables
       F5                C5 B5
 lo que quieren que vistas
A5                  E5
lo que quieren que hables
   F5                    G5 F#5

estribillo (muteado)
 hipotecados el bolsillo y la inquiretud
F5     C5          G5                 A5
 encadenados el criterio y la actitud
F5      C5         A5             D5

CORO:(detras: D|---5p0-3p0-2p0-3p0---|x8 )

 pasan los años, todo sigue igual
C5                             G5
puto rebaño superficial
                     F5
sin reaccionar
    A5 C5  G5
 nuestra capacidad cerebral
C5                       G5
se va tornando en estomacal
                        F5
sin reaccionar
    A5 C5  G5
sin reaccionar (Quinta cuerda)
    A5 E5  G5

VERSO:

 su oferta televisiva
A5           E5
logra ser sedante y mordaz
      F5                  C5 B5
 te cansas trabajando
A5              E5
¿para que quieres pensar?
      F5               G5
su noción del arte, sus noticias
A5                        F5
su memoria, su concepto de placer
                  F5            C5 B5
 no dejan ver el bosque
A5               E5
¿pá que quieres conocer?
    F5                 G5 F#5

ESTRIBILLO (muteado)

 se cortan las alas a toda improvisación
F5             C5       G5          A5
 se alaban las virtudes de
F5                C5
la globalización
   A5       D5

CORO: (detras: D|---5p0-3p0-2p0-3p0---|x8 )

 pasan los años, todo sigue igual
C5                             G5
puto rebaño superficial
                     F5
sin reaccionar
    A5 C5  G5
 nuestra capacidad cerebral
C5                       G5
se va tornando en estomacal
                        F5
sin reaccionar
    A5 C5  G5
sin reaccionar (Quinta cuerda)
    A5 E5  G5

PUENTE: (limpio acordes completos)

diaria dosis de anestesia que fabrica
Am                  Em
observadores indiferentes
       F                C5 B5
se desvía la atención
Am          Em
a problemas que nunca nos duelen
     F                    G
sobrecarga de mensajes pa tener
Am               Em
consumidores siempre muy obedientes
       F                     C5 B5
lo demás se ignora
Am            Em
y si no cuela se miente
     F           G     G

SOLO:
base:D-A-C-G D-A-F-C-G  D-A-C-G D-A-C-G

e |-----------------------------8-----|
B |---------------------8-------8-----|
G |--------5h7p5-7b-a.h.---7b---------|
D |------7----------------------------|
A |-----------------------------------|
E |-----------------------------------|
                               p.m.
e |-----------------------------------|
B |-----------------------------------|
G |-7-5--7p5-4-5p4----/7-5-7p5--------|
D |----------------5-----------7p5----|
A |-----------------------------------|
E |-----------------------------------|

e |-----------------------------------|
B |-----------------------------------|
G |-7p5-------------------------------|
D |-----7p5-7p5--------7p5------------|
A |-------------7-5--------7-5-3------|
E |------------------------------5-3--|

E|--------------------------------------|
B|--------------------------------------|
G|-7-5--5-7p5---5-7--5-7--5-7p5---5-7---|
D|------------7-----------------7-------|
A|--------------------------------------|
E|--------------------------------------|


E|-----------------------------------------|
B|-----------------------------------------|
G|-5-7--5-7p5---5-9--7-9b-7h9p7--7b-a.h.---|
D|------------7----------------------------|
A|-----------------------------------------|
E|-----------------------------------------|

E|-----------------------------------------|
B|-----------------------------------------|
G|--9p7-9p7--------------------------------|
D|----------10p7-10p7----------------------|
A|-------------------10p7-5----------------|
E|--------------------------5~~------------|

E|-----------------------------------------|
B|--------------------8--------------------|
G|-------------5-7-7b---7b.r.-9--10--12~---|
D|---------5-7-----------------------------|
A|-----5-7---------------------------------|
E|-5-8-------------------------------------|


CORO: (detras: D|---5p0-3p0-2p0-3p0---|x8 )

 pasan los años, todo sigue igual
C5                             G5
puto rebaño superficial
                     F5
sin reaccionar
    A5 C5  G5
 nuestra capacidad cerebral
C5                       G5
se va tornando en estomacal
                        F5
sin reaccionar
    A5 C5  G5
sin reaccionar (Quinta cuerda)
    A5 E5  G5

FINAL:
C5-B5-A5-F5-E5  C5-B5-A5-F5-D5
C5-B5-A5-F5-E5  C5-B5-A5-C5-B5-A5-C5-B5-A5 C5-B5-A5

            
            
Suggest correction
Creating personal tab
Creating personal tab
You can edit any tab online and save it as your Personal.

You can edit, replace or remove any tab part or add personal notes – all changes will be seen only by you.

Personal tabs can be accessed anytime from any device, even offline.
Learn more »
Give kudos to tab author, rate the tab!
1 2 3 4 5
comments
print report bad tab
guest
Wanna post a correction for this tab? Suggest correction