Oops, an error
Loading. Please wait.

You Still Love Bass Tab

74 views 1 this week
no commentswrite comment
1 2 3 4 5
3 more votes to show rating
add to favorites
launch autoscroll
font size
0
reset
guitar tuner
Autoscroll
slow
fast
+/-
esc
set tempo
stop
Help us to improve Ultimate-Guitar.com Take our survey!
×
Author
Difficulty
novice
-----------------------------------------------------------------

YOU STILL LOVE - Relent

-----------------------------------------------------------------
Tabbed By : Daniel Krishnan

e-mail: sickonfriday@gmail.com  
Tuning: Standard (EADG)

*Note, i did this pretty rushed, there might be some tabs missing.

Bass comes in at the bridge

Bridge
G|---------------------------------------------------------------|
D|----5h7p5--------------5------------------------------5--------|
A|---------3-5--5-5-5---5-5---5--------3-5-5-5-5-------5---------|
E|-------------------5s3----3---3--3-5-----------5-6--3--0-------|

Chorus
G|---------------------------------------------------------------|
D|---3----------------------------------3--------------2---------|
A|-----------0-2--------------3-3-3-3--3-3-------0-2--2-2--------|
E|-1\--3-3-3-----0-0-5-3-1-1-3--------1---1s3-3-3---0----5-3-5---|

G|---------------------------------------------------------------|
D|---3-----------------------------------------------------------|
A|--3-3----------3-3-3s7-7-7h8-8-8-8---0-2-3-0-1-----------------|
E|-1---1s3-3-3-3-------------------------------------------------|

Outro
G|---------------------------------------------------------------|
D|---------------------------------------------------------------|
A|-3-h5p3-h5p3-h5-3----------------------------------------------|
E|---------------------------------------------------------------|

| /  slide up
| \  slide down
| h  hammer-on
| p  pull-off
| ~  vibrato
| +  harmonic
| x  Mute note
Suggest correction
Give kudos to tab author, rate the tab!
1 2 3 4 5
comments
print report bad tab
guest
You may want to rate the tab now too:
select rating
Wanna post a correction for this tab? Suggest correction