Oops, an error
Loading. Please wait.

12 Days Of Christmas Tab

version 2
version 2

Whole song

Interactive

387 views 1 this week
no commentswrite comment
1 2 3 4 5
please rate
add to favorites
launch autoscroll
font size
0
reset
how to read this tab
guitar tuner
Autoscroll
slow
fast
+/-
esc
set tempo
stop
Help us to improve Ultimate-Guitar.com Take our survey!
×
 1st and 2nd day of christmas                                   ===========                
E|----------------------------------------------------------------------------| 
B|----------------------------------------------------------------------------| 
G|--4-------------------------------------------------------------8-9-x-x---4-| 
D|--x-Alot of times (Figure Out When To Palm Mute Or Whatever-4---8-9-x-x-4-4-| 
A|--2---------------------------------------------------------4---6-7-x-x-4-2-| 
E|------------------------------------------------------------2-----------2---| 
  
 
  3rd day of christmas 
E|----------------------------------------------------------------------------| 
B|----------------------------------------------------------------------------| 
G|--4-4-----------------------------------------------------------8-9-x-x---4-| 
D|--4-4-4-4-4-4-4-4-4-4-4-4-4-4-4-4-------------------------------8-9-x-x-4-4-| 
A|--2-2-2-2-2-2-2-2-2-2-2-2-2-2-2-2-4-4-4-4-4-4-4-4-4-4-4-4-4-4---6-7-x-x-4-2-| 
E|----------------------------------2-2-2-2-2-2-2-2-2-2-2-2-2-2-----------2---| 
      PM_______________________________________________________ 
  
 4th day of christmas 
E|----------------------------------------------------------------------------| 
B|----------------------------------------------------------------------------|  Do Half 
G|--4-4-4-4-4-4-4-4-4-4-4-4-4-4-4-4-------------------------------------------| Verse Ending 
D|--4-4-4-4-4-4-4-4-4-4-4-4-4-4-4-4-4-4-4-4-4-4-4-4-4-4-4-4-4-4-4-4-4-4-4-4-4-|  
A|--2-2-2-2-2-2-2-2-2-2-2-2-2-2-2-2-4-4-4-4-4-4-4-4-4-4-4-4-4-4-4-4-4-4-4-4-4-| 
E|----------------------------------2-2-2-2-2-2-2-2-2-2-2-2-2-2-2-2-2-2-2-2-2-| 
                               (Five golden rings) 
                                      | 
  5th day of christmas                v 
E|--------------------------------------------------------------------------| 
B|--------------------------------------------------------------------------| 
G|--4-4------------------------------4--6-----------------------------------| 
D|--4-4-4-4-4-4-4-4-4-4-4-4-4-4-4-4--4--6--4-4-4-4-4-4-4-4-4-4-4-4-4-4-4-4--| 
A|--2-2-2-2-2-2-2-2-2-2-2-2-2-2-2-2--2--4--4-4-4-4-4-4-4-4-4-4-4-4-4-4-4-4--| 
E|-----------------------------------------2-2-2-2-2-2-2-2-2-2-2-2-2-2-2-2--| 
      PM___________________________ 
 
    Whole Verse Ending 
    ==================================================== 
E|----------------------------------------------------------| 
B|----------------------------------------------------------| 
G|--4-4-4-4-4-4------------------------------8-9-x-x---4----| 
D|--4-4-4-4-4-4-2-2-2-2-2-2-3-3-3-3-4-4-4-4--8-9-x-x-4-4----| 
A|--2-2-2-2-2-2-2-2-2-2-2-2-4-4-4-4-4-4-4-4--6-7-x-x-4-2----| 
E|--------------0-0-0-0-0-0-1-1-1-1-2-2-2-2----------2------| 
 
  
   I Guess You Could Call This The Chorus 
E|-------------------------------------------------------------------| 
B|-------------------------------------------------------------------| 
G|--4-4-4-4-4-4-4-4--------------------------------------------------| 
D|--4-4-4-4-4-4-4-4-2-2-2-2-2-2-2-2-6-6-6-6-6-6-6-6-4-4-4-4-4-4-4-4--| 
A|--2-2-2-2-2-2-2-2-2-2-2-2-2-2-2-2-6-6-6-6-6-6-6-6-4-4-4-4-4-4-4-4--| 
E|------------------0-0-0-0-0-0-0-0-4-4-4-4-4-4-4-4-2-2-2-2-2-2-2-2--| 
 
 
   Chorus Continued 
E|-------------------------------------------------------------------| 
B|-------------------------------------------------------------------| 
G|--4-4-4-4-4-4-4-4--------------------------------------------------| 
D|--4-4-4-4-4-4-4-4-2-2-2-2-2-2-2-2-4-4-4-4-4-4-4-4-4-4-4-4-4-4-4-4--| 
A|--2-2-2-2-2-2-2-2-2-2-2-2-2-2-2-2-4-4-4-4-4-4-4-4-4-4-4-4-4-4-4-4--| 
E|------------------0-0-0-0-0-0-0-0-2-2-2-2-2-2-2-2-2-2-2-2-2-2-2-2--| 
 
  
  6th day of christmas 
E|-------------------------------------------------------------| 
B|-------------------------------------------------------------| 
G|--4-4----------------------------------------------4-6-------|Do Whole 
D|--4-4-4-4-4-4-4-4-4-4-4-4-4-4-4-4-4-4--------------4-6-4-----|Verse Ending 
A|--2-2-2-2-2-2-2-2-2-2-2-2-2-2-2-2-2-2-4-4-4-4-4-4--2-4-4-16x-|  
E|--------------------------------------2-2-2-2-2-2------2-----| 
      PM___________________________________________ 
     
Im Not Ging To Try To Get The Right Amount Of  
    Strums, But Heres The Order OF The Chords. 
   7th day of christmas (Acoustic) 
E|--2----2----2----2----2----4----2--------------| 
B|--4----2----4----2----4----6----2--------------| 
G|--4----3----4----3----4----6----3--------------|Do Whole 
D|--4----4----4----4----4----6----4--------------|Verse Ending 
A|--2----4----2----4----2----4----4--------------| 
E|-------2---------2--------------2--------------| 
 
 
  8th day of christmas 
E|----------------------------------------------------------------------------| 
B|----------------------------------------------------------------------------| 
G|-4--4--4--4--4--4--4--4-----------------------------4--4--4--4--6--6--6--6--| 
D|-4--4--4--4--4--4--4--4--4--4--4--4--4--4--4--4--4--4--4--4--4--6--6--6--6-4| 
A|-2--2--2--2--2--2--2--2--4--4--4--4--4--4--4--4--4--2--2--2--2--4--4--4--4-4| 
E|-------------------------2--2--2--2--2--2--2--2--2-------------------------2| 
                                                                             ^ 
                                                                             8x 
    Slightly altered Whole verse ending                              
E|----------------------------------------------------| 
B|----------------------------------------------------| 
G|----------4-----------------------8-9-x-x---4-------| 
D|--4-4-4-4-4---------2-2---3-4-----8-9-x-x-4-4-------| 
A|--2-2-2-2-2---2-2---2-2---4-4-----6-7-x-x-4-2-------| 
E|--------------0-0---0-0---1-2-------------2---------| 
  Pm_______   Pm___ 
 
   9th day of christmas 
E|--------------------------------------------------------------------------| 
B|--------------------------------------------------------------------------| 
G|--4-4-4-4-4-4-4-4-4-4-4-4-4-4-4-4-----------------------------------------| 
D|--4-4-4-4-4-4-4-4-4-4-4-4-4-4-4-4--4--4-4-4-4-4-4-4-4-6-6-6-6-6-6-6-6-----| 
A|--2-2-2-2-2-2-2-2-2-2-2-2-2-2-2-2--4--2-2-2-2-2-2-2-2-4-4-4-4-4-4-4-4-4---| 
E|-----------------------------------2----------------------------------2---| 
                                     ^                                  ^ 
                                     24                                 16 
   This Isn't Correct, But If You Had To Play This Live, It Would Sound Good. 
E|-------------------------------------------------------------| 
B|-------------------------------------------------------------| 
G|--4-4-4-4-4-4--9-9-9-9-9-9--6-6-6-6--------------------------| 
D|--4-4-4-4-4-4--9-9-9-9-9-9--4-4-4-4---Half Verse Ending------| 
A|-------------------------------------------------------------| 
E|-------------------------------------------------------------| 
  Pm_________________________________ 
 
  Chorus 
 
 End Chorus On 
E|-----------| 
B|-----------| 
G|-----------| 
D|-----------| 
A|--4-4-4-4--| 
E|--2-2-2-2--| 
  Pm_______ 
 
  10th day of christmas 
E|--------------------------------------------------------------------------| 
B|--------------------------------------------------------------------------| 
G|--5-5--------------------------------------------5--7------5--------------| 
D|--5-5-5-5-5-5-5-5-5-5-5-5-5-5-5-5-5--5--5--5--5--5--7--5---5--3-3--4--5---| 
A|--3-3-3-3-3-3-3-3-3-3-3-3-3-3-3-3-5--5--5--5--5--3--5--5---3--3-3--5--5---| 
E|----------------------------------3--3--3--3--3--------3------1-1--2--3---| 
      Pm___________________________                      ^                ^ 
  Half Verse Ending                                      16         Play Half Verse 
  Half step up                                                    Ending Half Step Up 
E|----------------| 
B|----------------| 
G|--9-10-x-x---5--| 
D|--9-10-x-x-5-5--| 
A|--7--8-x-x-5-3--| 
E|-----------3----| 
 
   Starting After Five Golden Rings 
   In The 11th Day Of Christmas 
   -Whole Verse Ending Half Step Up- 
   ======================================================= 
E|--------------------------------------------------------------| 
B|--------------------------------------------------------------| 
G|--5-5-5-5-5-5------------------------------9-10-x-x----5------| 
D|--5-5-5-5-5-5-3-3-3-3-3-3-4-4-4-4-5-5-5-5--9-10-x-x--5-5------| 
A|--3-3-3-3-3-3-3-3-3-3-3-3-5-5-5-5-5-5-5-5--7-8--x-x--5-3------| 
E|--------------1-1-1-1-1-1-2-2-2-2-3-3-3-3------------3--------| 
 
   
  12th day of christmas 
E|-------------------------------------------------------------------|                   
B|-------------------------------------------------------------------| 
G|--5-5---------------------------------------------------5--7-------| 
D|--5-5-5-5-5-5-5-5-5-5-5-5-5-5-5-5--5--5--5--5--5--5--5--5--7--5----| 
A|--3-3-3-3-3-3-3-3-3-3-3-3-3-3-3-3--5--5--5--5--5--5--5--3--5--5----| 
E|-----------------------------------3--3--3--3--3--3--3--------3----| 
      Pm___________________________                             ^ 
                                                                16 
 
 
 
E|----------------------------------------------| 
B|----------------------------------------------| 
G|--5----------9--10-----5----------------------| 
D|--5-3-3-4-5--9---8--5--5----------------------| 
A|--3-3-3-5-5--7---8--5--3----------------------| 
E|----1-1-2-3---------3-------------------------| 
 
   And If You Feel 
   Like Playing That Stuff They Do At The End... 
E|--------2/8\7/10--------3-4--a-bunch-of-times-------| 
B|----------------------------------------------------| 
G|--/7------------------------------------------------| 
D|---x------------------------------------------------| 
A|--/5------------------------------------------------| 
E|----------------------------------------------------|
Suggest correction
Give kudos to tab author, rate the tab!
1 2 3 4 5
comments
print report bad tab
guest
You may want to rate the tab now too:
select rating
Wanna post a correction for this tab? Suggest correction