Oops, an error
Loading. Please wait.

A Penny Loafer Saved Is A Penny Loafer Earned Bass Tab

version 1
version 1

Whole song

Interactive

333 views 1 this week
no commentswrite comment
1 2 3 4 5
excellent!
x 3
add to favorites
launch autoscroll
font size
0
reset
guitar tuner
Tab Pro tools
  • play this tab
  • loop segment
  • change instrument
  • show fretboard
  • metronome
×
Best way to learn
"A Penny Loafer Saved Is A Penny Loafer Earned"
Autoscroll
slow
fast
+/-
esc
set tempo
stop
Contributor
Difficulty
-----------------------------------------------------------------------------
              A PENNY LOAFER SAVED IS A PENNY LOAFER EARNED      RELIENT K
-----------------------------------------------------------------------------

Tabbed by:hurricaneherman
Tuning:Standard

Here is the bass tab for Relient K's song "A Penny Loafer Saved Is A Penny
Loafer Earned", from their album The Bird And The Bee Sides.

NOTE:The lyrics don't line up with the individual notes,
so don't use them as guidelines.

~VERSE 1~

G|--------------------------------|    |--------------------------------|
D|--------------------------------|    |--------------------------------|
A|----------------3---3---3-3-3-3-|X[3]|------------------------0h3-----|
E|1---1---1-1-1-1-----------------|    |3---3---3-3-3-3-3---3-----------|
  Brian and me well we both agree that that penny loafers are absurd

G|--------------------------------|    |--------------------------------|
D|--------------------------------|    |--------------------------------|
A|----------------3---3---3-3-3-3-|X[3]|--------------------------------|
E|1---1---1-1-1-1-----------------|    |3---3---3-3-3-3-3---3---3-3-3-3-|
'Cause I don't know why on earth that you would take your two cents worth
                   and stick them in your girly shoes

G|----------------------------------------------------------------|
D|----------------------------------------------------------------|
A|----------------------------------------------------------------|
E|5---------------4---------------3---------------2---------------|
            And Dave replied well after all why not at

G|----------------------------------------------------------------|
D|----------------------------------------------------------------|
A|----------------------------------------------------------------|
E|1---------------------------------------------------------------|
       Least use quarters so then you can make a phone call

~VERSE 2~

G|----------------------------------------------------------------|
D|--------------------------------0-------------------------------|
A|----------------0---0---0---0---------------------------0h5-----|
E|2---2---2---2/5-------------------------------------------------|
           It's finally time time for our victory lap

G|----------------------------------------------------------------|
D|----------------------------------------------------------------|
A|5---5---5---5-\-0---0---0---0-/-5---5---5---5-/-7---7---7---7\0-|
E|----------------------------------------------------------------|
                 Assembled at B one last turn

G|----------------------------------------------------------------|
D|--------------------------------0-------------------------------|
A|----------------0---0---0---0---------------------------5-5-----|
E|2---2---2---2/5-------------------------------------------------|
      The matchbox tires spin out on the welcome mat and the

G|----------------------------------------------------------------|
D|----------------------------------------------------------------|
A|5---5---5-5-5-5\0---0---0-0-0-0/5---5---5-5-5-5/7---7---7-7-7-7-|
E|----------------------------------------------------------------|
 Firemen are tired men who can't put out the rug burn and they say

G|----------------------------------------------------------------|
D|----------------------------------------------------------------|
A|----------------------------------------------------------------|
E|1-----------1---3---------------5-------4-------3-------2-------|
  Cut your hair short and then walk through an airport so you can
                      dream of destinations

~PRE-CHORUS~

G|----------------------------------------------------------------|
D|----------------------------------------------------------------|
A|----------------------------------------------------------------|
E|5---5---5---5---5---5---5---5---4---4---4---4---4---4---4---4---|
      Cut your hair short and then walk through an airport
      Cut your hair short and then walk through an airport

G|----------------------------------------------------------------|
D|----------------------------------------------------------------|
A|----------------------------------------------------------------|
E|3---3---3---3---3---3---3---3---1-------------------------------|
        While all the while your singing good vibrations

~CHORUS~

For the chorus, the lyrics do line up with the notes.

G|----------------------------------------------------------------|
D|----------------------------------------------------------------|
A|1---------------1-------5---\-----------------------------------|
E|--------------------------------1-------------------------------|
                                                 Your singing good

G|----------------------------------------------------------------|
D|----------------------------------------------------------------|
A|1-----------------------------------------------1-----------1---|
E|--------------------------------1-------------------------------|
Vibrations                           your Singing good

G|----------------------------------------------------------------|
D|----------------------------------------------------------------|
A|1-----------------------------------------------1---------------|
E|----------------1-----------------------------------------------|
  Good            good                    good vibrations

G|----------------------------------------------------------------|
D|----------------------------------------------------------------|
A|------------------------------------------------1-----------1---|
E|----------------1-----------------------------------------------|
                                          Singing good

G|----------------------------------------------------------------|
D|------------------------------------------------------------3---|
A|1-----------------------------------------------1---------------|
E|----------------1---------------1-------------------------------|
  Good            good            good          vibrations

G|----------------------------------------------------------------|
D|0---------------------------------------------------------------|
A|----3---0---1-----------------------------------0---------------|
E|----------------1-----------------------------------------------|
                                          Singing good

G|----------------------------------------------------------------|
D|----------------1-------------------------------1---------------|
A|----------------------------------------------------------------|
E|----------------------------------------------------------------|
  Good            good             good           we both

G|--------------------------------5-------------------------------|
D|----------------------------------------------------------------|
A|3---------------------------------------------------------------|
E|----------------------------------------------------------------|
 Agree                                                    humming

G|----------------------------------------------------------------|
D|----------------------------------------------------------------|
A|1-----------1---1-------------1h3-------------------------------|
E|----------------------------------------------------------------|
  Good            good            good             hmm     hmm

G|----------------------------------------------------------------|
D|----------------------------------------------------------------|
A|1---------------------------------------------------------------|
E|----------------------------------------------------------------|
  Hmm      hmm

=============================================================================
each " - " equals a sixteenth note
/ = slide up
\ = slide down
h = hammer on

This tab should be 100% correct, but if you happen to find something wrong,
you can leave a comment so then I can fix it.
I hope you enjoy this tab, and that it is easy to follow.

Peace, Love, I'm out.
comments
We did not receive enough feedback on this tab! Please rate:
print report bad tab
1 2 3 4 5
I want to post or [tab]
guest
You may want to rate the tab now too:
select rating
Please do not post tabs as comments. Select "correction" instead!