Oops, an error
Loading. Please wait.

Angels We Have Heard On High Tab

14,644 views 1 this week
7 commentsread comments
1 2 3 4 5
accurate
x 4
add to favorites
launch autoscroll
font size
0
reset
how to read this tab
guitar tuner
Tab Pro tools
  • play this tab
  • loop segment
  • change instrument
  • show fretboard
  • metronome
×
Best way to learn
"Angels We Have Heard On High"
Autoscroll
slow
fast
+/-
esc
set tempo
stop
Difficulty
novice
This tab is for guitar 1 only, I'm not good enough to tab the 2nd guitar.


Intro

e----------------------------------------------------------------------------|
b----------------------------------------------------------------------------|
g-55555555----------55555555----------5-x----------------55555555-55555555-5-|
D-55555555-33333333-55555555-55555555-5-x-33-x-33-x-55-x-33333333-33333333-5-|
A-33333333-33333333-33333333-55555555-3-x-33-x-33-x-55-x-33333333-33333333-3-|
E----------11111111----------33333333-----11-x-11-x-33-x---------------------|
                                                                  ********
Verse 1

e------------------------------------|
b------------------------------------|
g-555555555555555555555555------5555-|
D-555555555555555555555555-5555-5555-|  X2
A-333333333333333333333333-5555-3333-|
E--------------------------3333------|
  ************************ **** ****

Chorus 1

e---------------------------------------------------------      ---|
b---------------------------------------------------------      ---|
g--55555555----------55555555----------5-x----------------      -5-|
D--55555555-33333333-55555555-55555555-5-x-33-x-33-x-55-x-  X2  -5-|  
A--33333333-33333333-33333333-55555555-3-x-33-x-33-x-55-x-      -3-|
E-----------11111111----------33333333-----11-x-11-x-33-x-      ---|


Verse 2

e---  ------------------------------------|
b---  ------------------------------------|
g-5-  -555555555555555555555555------5555-|
D-5-  -555555555555555555555555-5555-5555-|  X2
A-3-  -333333333333333333333333-5555-3333-|
E---  --------------------------3333------|
       ************************ **** ****

Chorus 2

e----------------------------------------------------------|
b----------------------------------------------------------|
g--55555555----------55555555----------5-x-----------------|
D--55555555-33333333-55555555-55555555-5-x-33-x-33-x-55-x--|  
A--33333333-33333333-33333333-55555555-3-x-33-x-33-x-55-x--|
E-----------11111111----------33333333-----11-x-11-x-33-x--|
                                                          
e---------------------------------------------------|
b---------------------------------------------------|
g--55-55~-------_55-55~------- 5-x----------------5-|
D--55-55~-33-33~-55-55~-55-55~-5-x-33-x-33-x-55-x-5-|  
A--33-33~-33-33~-33-33~-55-55~-3-x-33-x-33-x-55-x-3-|
E---------11-11~--------33-33~-----11-x-11-x-33-x---|


Short Break

e---------------------------------------|
b---------------------------------------|
g-5-x-----------------------------------|
D-5-x-33-x-33-x-55-x-33333333-555555555-|  
A-3-x-33-x-33-x-55-x-33333333-555555555-|
E-----11-x-11-x-33-x-11111111-333333333-|


Final Chorus


e---------------------------------------------------------|
b---------------------------------------------------------|
g--55555555----------55555555----------5-x----------------|
D--55555555-33333333-55555555-55555555-5-x-33-x-33-x-55-x-|  
A--33333333-33333333-33333333-55555555-3-x-33-x-33-x-55-x-|
E-----------11111111----------33333333-----11-x-11-x-33-x-|


e--------------------------------------|
b--------------------------------------|
g------------------------------------5-|
D--5555555555555555-5555555555555555-3-|  
A--5555555555555555-3333333333333333-3-|
E--2222222222222222-3333333333333333---|
                    ****************  
comments
print report bad tab
7 comments total. Showing first comments.
0 reply
DanceWreck wrote on January 4 2008, 12:42 am

what you have is all accurate so far but you should put add the other guitars too. . .rythym guitar is pretty easy in
this song to hear, but tab the lead

0 reply
spdaniel91 wrote on January 7 2008, 12:04 pm

Nice! But other guitars, but as DanceWreck said, you should put the lead guitar so we can play it in my band xD

5
stars.

0 reply
FenderStratQB19 wrote on December 8 2008, 06:28 pm

Lead intro
e----------------------------------------
B----------------------------------------
G----------------------------------------
D-5-7-5-3-2-3-5-3-2-0-2-3-2-0--------------------------
A-----------------------------3-5-33--3XX5X5X3-------
E----------------------------------------

I want to post or [tab]
guest
You may want to rate the tab now too:
select rating
Please do not post tabs as comments. Select "correction" instead!