Oops, an error
Loading. Please wait.

Apathetic Way To Be Tab

version 2
version 2

Whole song

5,161 views 9 this week
1 commentread comment
1 2 3 4 5
excellent!
x 4
add to favorites
launch autoscroll
font size
0
reset
how to read this tab
guitar tuner
Autoscroll
slow
fast
+/-
esc
set tempo
stop
Help us to improve Ultimate-Guitar.com Take our survey!
×
Author
Title: Apathetic Way To Be
Artist: Relient K
Album: Apathetic E/P

Standard Tuning (E A D G B E)

Intro
|---------------------------------|
|-444-666-444-666-666-999-666-7~~-|
|-666-666-666-666-666-666-666-6~~-|
|-666-666-666-666-666-666-666-6~~-|
|---------------------------------|
|---------------------------------|

Verse
|-------------------|-------------------|
|-------------------|-------------------|
|-----6666----------|-----6666----------|
|-444-6666-888-6666-|-444-6666-888-6666-|
|-444-4444-888-6666-|-444-4444-888-6666-|
|-222------666-4444-|-222------666-4444-|
pm... ...  ... ....   ... .... ... ....


|-------------------|-------------------|
|-------------------|-------------------|
|-----6666----------|-----6666----------|
|-444-6666-888-6666-|-444-6666-888-6666-|
|-444-4444-888-6666-|-444-4444-888-6666-|
|-222------666-4444-|-222------666-4444-|
pm... ...  ... ...    ... .... ... ....


|-------------------|-------------------|
|-------------------|-------------------|
|-666-5555-333-5555-|-666-5555-333-5555-|
|-888-6666-555-6666-|-888-6666-555-6666-|
|-------------------|-------------------|\
|-------------------|-------------------| \
| ... .... ... ....   ... .... ... ...     \
|                                          x2
|                                          /
|-------------------|-------------------| /
|-------------------|-------------------|/
|-----6666----------|-----6666----------|
|-444-6666-888-6666-|-444-6666-888-6666-|
|-444-4444-888-6666-|-444-4444-888-6666-|
|-222------666-4444-|-222------666-4444-|
pm... ...  ... ...    ... .... ... ....

(2nd time through near end slowly release palm-muting)

Chorus
|--------------------|
|--------------------|
|-----66-------------|
|-4---66---888--66---| x3
|-4---44---888--66---|
|-2--------666--44---|

|--------------------|
|--------------------|
|-----66-------------|
|-4---66---8888888---|
|-4---44---8888888---|
|-2--------6666666---|

Intro to 2nd Verse

Lead guitar plays Intro (x2)

Rhythmn gutiar
|-------------------------------------|
|-------------------------------------|
|----------66666666-------------------|
|-44444444-66666666-88888888-66666666-|
|-44444444-44444444-88888888-66666666-|
|-22222222----------66666666-44444444-|

Verse

Chorus

Bridge Part I
|-------------------------------------|
|-------------------------------------|
|-66666666-55555555-33333333-66666666-|
|-66666666-66666666-33333333-44444444-|
|-44444444-33333333-11111111-44444444-|
|-------------------------------------|

Clean part (strum this chords out)
|-9--8--6--8--|
|-9--9--9--9--|
|-10-10-10-10-|
|-------------|
|-------------|
|-------------|

Lead (with lots of echo, its very faint in the background)
|----------|----------|----------|----------|
|-6~~-4~~~-|-6~~~~~~~-|-6~~-4~~~-|-6~~-7777-|
|----------|----------|----------|----------|
|----------|----------|----------|----------|
|----------|----------|----------|----------|
|----------|----------|----------|----------|
|
|
|
|----------|----------|----------|----------|
|----------|----------|----------|----------|
|-66666666-|-66666666-|-66666666-|-66666666-|
|-66666666-|-66666666-|-66666666-|-66666666-|
|-44444444-|-44444444-|-44444444-|-44444444-|
|----------|----------|----------|----------|
pm........   ........   ........   (slowly loose palm-muting here)

Bridge Part II
|-------------------------------------|
|-------------------------------------|
|-------------------------------------|
|-88888888-77777777-66666666-55555555-|
|-88888888-88888888-66666666-66666666-|
|-66666666-55555555-44444444-33333333-|
pm........ ........ ........ ........

|------------|------------|--------------------|--------------------|
|------------|------------|--------------------|--------------------|
|-----6-6~~~-|-----6-6~~~-|-----6-6-6666666666-|-----6-6-6666666666-|
|-4---6-6~~~-|-4---6-6~~~-|-4---6-6-6666666666-|-4---6-6-6666666666-|
|-4---4-4~~~-|-4---4-4~~~-|-4---4-4-4444444444-|-4---4-4-4444444444-|
|-2----------|-2----------|-2------------------|-2------------------|
pm                                  ..........           ..........

|-------------------------------------|
|-------------------------------------|
|-------------------------------------|
|-88888888-77777777-66666666-55555555-|
|-88888888-88888888-66666666-66666666-|
|-66666666-55555555-44444444-33333333-|
pm........ ........ ........ ........

|---------------------------------------|
|---------------------------------------|
|----------------6666-------------------|
|-4444-6666-8888-6666-44444444-66666666-|
|-4444-6666-8888-4444-44444444-66666666-|
|-2222-4444-6666------22222222-44444444-|
pm.... .... .... .... ........ ........

Chorus (x2)

Outro
Lead guitar plays Intro
Rhythmn guitar
|------------------------------------|
|------------------------------------|
|----------66666666-666--------------|
|-44444444-66666666-666-666-44444444-| x3
|-44444444-44444444-444-666-44444444-|
|-22222222--------------444-22222222-|

|----------------------------|
|----------------------------|
|----------6~~~-6------------|
|-44444444-6~~~-6---6---4~~~-|
|-44444444-4~~~-4---6---4~~~-|
|-22222222----------4---2~~~-|


Relient K is an awesome band. Enjoy.
Suggest correction
comments
print report bad tab
1 comment total.
0 reply
Guitarman479 200 wrote on April 6 2009, 08:48 pm

great tab man. i think u got it all, so i give it a 5. love this song too.

guest
You may want to rate the tab now too:
select rating
Please do not post tabs as comments. Select "correction" instead!