Oops, an error
Loading. Please wait.

Be My Escape Tab

version 1
version 1

Whole song

Interactive

37,349 views 9 this week
3 commentsread comments
1 2 3 4 5
accurate
x 8
add to favorites
launch autoscroll
font size
0
reset
how to read this tab
guitar tuner
Autoscroll
slow
fast
+/-
esc
set tempo
stop
Help us to improve Ultimate-Guitar.com Take our survey!
×
Artist: Relient K
Song: Be My Escape (Track 2)
Album: "MMHMM"

standard tuning
*=Palm mute

Intro
   5x    5x
e|--x--|-x--|
B|--10-|-9--|
G|--11-|-11-|----repeat 8 times
D|--11-|-11-|
A|--9--|-9--|
E|--x--|-x--|

Guitar 2 comes in on third time

e|---------|
B|---------|
G|---------|----figure out the timing...
D|--7---11-|
A|--5---9--|
E|---------|

I can't figure out what the first guitar is playin in the background but here is
guitar 2's line

e|--------------|
B|--------------|
G|--------------|----repeat 4 times
D|--11-11-11-9--|
A|--9--9--9--7--|
E|--------------|

Verse:

Piano plays for a minute...

e|----------------------------|
B|----------------------------|
G|----------------------------|
D|--------7----11--9-----6--7-|
A|--7--9--5----9---7--7--4--5-|
E|--5--7--------------5-------|

Chorus:
                                 8x    4x each
e|--------------|              e|----|----------|
B|--------------|              B|----|----------|
G|--------------|----3 times   G|----|----------|
D|--11--7-----9-|              D|----|--7--9----|
A|--9---5--7--7-|              A|--9-|--5--7----|
E|---------5----|              E|--7-|----------|


e|--------------|               e|--------------|
B|--------------|               B|--------------|
G|--------------|----3 times    G|--------------|
D|-----9--7--9--|               D|--11--9--7--9-|
A|--7--7--5--7--|               A|--9---7--5--7-|
E|--5-----------|               E|--------------|

Verse 2:
    *  * 2x    *  * 2x
e|---------------------|      e|----------------|
B|---------------------|      B|----------------|
G|---------------------|      G|----------------|-----repeat verse 2 twice
D|-------------7--7--7-|      D|-11--9-----6--7-|
A|--7--7--7----5--5--5-|      A|-9---7--7--4--5-|
E|--5--5--5------------|      E|--------5-------|
    *  *       *

Chorus

Bridge?
5x    5x
e|-----|----|
B|--10-|-9--|
G|--11-|-11-|----repeat 4 times
D|--11-|-11-|
A|--9--|-9--|
E|-----|----|

Bass plays for a minute

Then play the same chords as the bridge....but the strumming is different,
its easy to figure out

Piano plays for bit

                     * 8x  *  * 4x each
e|--x---x-|       e|--x-|--x--x----|
B|--x---x-|       B|--x-|--x--x----|
G|--x---x-|       G|--x-|--x--x----|
D|--11--7-|       D|--x-|--7--9----|
A|--9---5 |       A|--9-|--5--7----|
E|--x---x-|       E|--7-|--x--x----|
                      *    *  *

Chorus (starting from "I gotta get out of here")

The piano plays the rest of the time

URL: http://www.mxtabs.net/tabs.php?path=Guitar,r,1077,Relient+K,Be+My+Escape,177540

Song: High of 75 (Track 3)
Band: Relient K
Album: Mmhmm

Tabbed by: Edi K. (email me at diami_11@yahoo.com)

Tuning: (Eb-Ab-Db-Gb-Bb-Eb)

. = palm muted
~ = let ring

Intro: Acoustic
Eb|-------------------------        Eb|----------|
Bb|-------------------------        Bb|----------|
Gb|---10-10-10-10\9-9-9-9---    x6    Gb|--10~---|
Db|---10-10-10-10\9-9-9-9---        Db|--10~-----|
Ab|---8--8--8--8-\7-7-7-7---        Ab|--8~------|
Eb|-------------------------        Eb|----------|


Main Riff: 1st guitar
Eb|----------------------------------------|
Bb|---6-6-6-6--5-5-5-5--8-8-8-8--5-5-5-5---|
Gb|---5-5-5-5--5-5-5-5--5-5-5-5--5-5-5-5---|    x4
Db|----------------------------------------|
Ab|----------------------------------------|
Eb|----------------------------------------|


2nd guitar
Eb|-----------------------------------------------------------------------|
Bb|-----------------------------------------------------------------------|
Gb|---5-5-5-5-5-5-5-5-5-5-5-5-5-5-5-5-------------------------------------|
Db|---5-5-5-5-5-5-5-5-5-5-5-5-5-5-5-5--3-3-3-3-3-3-3-3-3-3-3-3-3-3-3-3----|
Ab|---3-3-3-3-3-3-3-3-3-3-3-3-3-3-3-3--3-3-3-3-3-3-3-3-3-3-3-3-3-3-3-3----|
Eb|------------------------------------1-1-1-1-1-1-1-1-1-1-1-1-1-1-1-1----|

Eb|-----------------------------------------------------------------------|
Bb|-----------------------------------------------------------------------|
Gb|-----------------------------------------------------------------------|
Db|---7-7-7-7-7-7-7-7--5-5-5-5-5-5-5-5--3-3-3-3-3-3-3-3-3-3-3-3-3-3-3-3---|
Ab|---7-7-7-7-7-7-7-7--5-5-5-5-5-5-5-5--3-3-3-3-3-3-3-3-3-3-3-3-3-3-3-3---|
Eb|---5-5-5-5-5-5-5-5--3-3-3-3-3-3-3-3--1-1-1-1-1-1-1-1-1-1-1-1-1-1-1-1---|


Verse:

Play the main riff x4 (1st guitar)


Both guitars
Eb|----------------------------------------------------------------------|
Bb|----------------------------------------------------------------------|
Gb|---5-5-5-5-5-5-5-5-5-5-5-5-5-5-5-5------------------------------------|
Db|---5-5-5-5-5-5-5-5-5-5-5-5-5-5-5-5--3-3-3-3-3-3-3-3-3-3-3-3-3-3-3-3---|
Ab|---3-3-3-3-3-3-3-3-3-3-3-3-3-3-3-3--3-3-3-3-3-3-3-3-3-3-3-3-3-3-3-3---|
Eb|------------------------------------1-1-1-1-1-1-1-1-1-1-1-1-1-1-1-1---|
      . . . .                              . . . . . . . . . . . . . .

Eb|----------------------------------------------------------------------|
Bb|----------------------------------------------------------------------|
Gb|----------------------------------------------------------------------|
Db|---7-7-7-7-7-7-7-7--5-5-5-5-5-5-5-5--3-3-3-3-3-3-3-3-3-3-3-3-3-3-3-3--|
Ab|---7-7-7-7-7-7-7-7--5-5-5-5-5-5-5-5--3-3-3-3-3-3-3-3-3-3-3-3-3-3-3-3--|
Eb|---5-5-5-5-5-5-5-5--3-3-3-3-3-3-3-3--1-1-1-1-1-1-1-1-1-1-1-1-1-1-1-1--|


Prechorus: Both guitar
Eb|-------------------------------------------------------------|
Bb|-------------------------------------------------------------|
Gb|-------------------------------------------------------------|       x2
Db|---2-2--5-5--2-2--3-3---2-2-2-2--5-5-5-5--2-2-2-2--3-3-3-3---|
Ab|---2-2--5-5--2-2--3-3---2-2-2-2--5-5-5-5--2-2-2-2--3-3-3-3---|
Eb|---0-0--3-3--0-0--1-1---0-0-0-0--3-3-3-3--0-0-0-0--1-1-1-1---|
                           . . . .  . . . .  . . . .  . . . .

Chorus: No guitar, just piano


REPEAT MAIN RIFF x2
REPEAT VERSE (Main riff x4)
REPEAT PRECHORUS (x2)

After there is another piano part during the chorus. (First time through)


Chorus 2: Both guitars
Eb|-------------------------------------------------------------------------|
Bb|-------------------------------------------------------------------------|
Gb|--5-5-5-5----------------------------------------------------------------|
Db|--5-5-5-5--3-3-3-3--7-7-7-7--5-5-5-5--2-2-2-2--3-3-3-3--2-2-2-2--5-5-5-5-|
Ab|--3-3-3-3--3-3-3-3--7-7-7-7--5-5-5-5--2-2-2-2--3-3-3-3--2-2-2-2--5-5-5-5-|
Eb|-----------1-1-1-1--5-5-5-5--3-3-3-3--0-0-0-0--1-1-1-1--0-0-0-0--3-3-3-3-|

Eb|---------------------------------------------------------|
Bb|---------------------------------------------------------|
Gb|---5-5-5-5-----------------------------------------------|
Db|---5-5-5-5--3-3-3-3--7-7-7-7--5-5-5-5--2-2-2-2--5-5-5-5--|
Ab|---3-3-3-3--3-3-3-3--7-7-7-7--5-5-5-5--2-2-2-2--5-5-5-5--|
Eb|------------1-1-1-1--5-5-5-5--3-3-3-3--0-0-0-0--3-3-3-3--|


I hope this tab wasn't confusing either. I also enjoyed making it. I'm on a role! Have fun!

Enjoy,

"black guitarist"

URL: http://www.christianguitar.org/csong/15120
Suggest correction
What's this?
You can suggest a correction to this tab. Community and Mods will review your correction and vote to approve or reject it.
comments
print report bad tab
3 comments total.
0 reply
effenvodka 18 wrote on December 4 2007, 09:51 am

this tab is great an it really works!

0 reply
cchamber07 10 wrote on April 1 2008, 09:20 pm

you need a capo for this song

0 reply
super panda 15 wrote on July 15 2009, 10:15 pm

thanks man i rele wanted to know how to play this song =) and yea its capo on the second fret

guest
You may want to rate the tab now too:
select rating
Please do not post tabs as comments. Select "correction" instead!