Oops, an error
Loading. Please wait.

Be My Escape Tab

version 3
version 3

Whole song

Interactive

114,830 views 84 this week
31 commentsread comments
1 2 3 4 5
x 96
add to favorites
launch autoscroll
font size
0
reset
how to read this tab
guitar tuner
Autoscroll
slow
fast
+/-
esc
set tempo
stop
Help us to improve Ultimate-Guitar.com Take our survey!
×
Author
Difficulty
intermediate
[Intro]
(Guitar 1)
(0:00)
(Riff 1)
e|---9--9--9--9--9--9--9--9--9--9--|
B|--10-10--9--9-10-10--9--9--9--9--|
G|--11-11-11-11-11-11-11-11--9--9--| (4x)
D|--11-11-11-11-11-11-11-11-11-11--|
A|---9--9--9--9--9--9--9--9--9--9--|
E|---x--x--x--x--x--x--x--x--x--x--|

(Guitar 2)
    (0:04)   (0:08)   (0:12)
e|-----------------------------|
B|-----------------------------|
G|--7-7-7-7-----------7-7-7-7--|
D|--7-7-7-7--4-4-4-4--7-7-7-7--|
A|--5-5-5-5--4-4-4-4--5-5-5-5--|
E|-----------2-2-2-2-----------|

(Guitar 1)
(0:17) 
(Riff 2) 
(Riff 2 includes both guitars’ separate parts.)
e|---9-----9-----9-----9--------------------------------------|
B|--10----10-----9-----9--------------------------------------|
G|--11----11----11-----9--Question/answer type section with --| (4x)
D|--11----11----11----11--Guitar 2 below, Parts are lined up--|
A|---9-----9-----9-----9--------------------------------------|
E|---x-----x-----x-----x--------------------------------------|

(Guitar 2)
(0:17)
(Riff 2)
e|------9-----9-----9----9--|
B|-----10----10-----9----9--|
G|-----11----11----11---11--| (4x)
D|-----11----11----11---11--|
A|------9-----9-----9----9--|
E|------x-----x-----x----x--|

[Verse 1]
(O:25) 
(Piano does a little rockin of its own…)
(At (0:34) Both guitars come in with this line, we’ll call it Riff 3.)
(Listen closely, you’ll hear the slide from the 1st to the 2nd chord.)
    A5   B5  D5  F#5  E5  B5 C#5  D5
e|-----------------------------------|
B|-----------------------------------|
G|-----------7~--11~--9~--4---6---7--|
D|--7~--/9~--7~--11~--9~--4---6---7--|
A|--7~--/9~--5~---9~--7~--2---4---5--|
E|--5~--/7~--------------------------|

(At (0:42) Both guitars) 
(Riff 4)
    F#5    D5     A5   E5
e|----------------------------|
B|----------------------------|
G|--11-11--7-7-7-------9-9-9--| (3x)
D|--11-11--7-7-7--7-7--9-9-9--|
A|---9--9--5-5-5--7-7--7-7-7--|
E|----------------5-5---------|

(0:55) 
(Both guitars: Riff 5)
e|---------------------------x-x-x-x--|
B|---------------------------x-x-x-x--|
G|-------------------7-7--9--x-x-x-x--|
D|--9-9-9-9-9-9-9-9--7-7--9--x-x-x-x--|
A|--9-9-9-9-9-9-9-9--5-5--7--x-x-x-x--|
E|--7-7-7-7-7-7-7-7----------x-x-x-x--|

(Chorus 1)
(0:59)
e|---------------------------------x-x-x-x--|
B|---------------------------------x-x-x-x--|
G|------9~--7~--9~------9~--7~--9--x-x-x-x--|
D|--7~--9~--7~--9~--7~--9~--7~--9--x-x-x-x--|
A|--7~--7~--5~--7~--7~--7~--5~--7--x-x-x-x--|
E|--5~--------------5~-------------x-x-x-x--|

e|----------------------------------------------|
B|----------------------------------------------|
G|------9~--7~--9~--11-11-11--9-9-9--7-7-7--9~--|
D|--7~--9~--7~--9~--11-11-11--9-9-9--7-7-7--9~--|
A|--7~--7~--5~--7~---9--9—-9--7-7-7--5-5-5--7~--|
E|--5~------------------------------------------|

[Verse 2]
(Both guitars, this is a muted version of Riff 3)
(1:17)
e|-------------------------------------------|
B|-------------------------------------------|
G|--------------7-7---7-7----11~--9~--4-6-7--| (2x)
D|--7-7-7-9-9-7-7-7-7-7-7-7--11~--9~--4-6-7--|
A|--7-7---9-9---5-5---5-5-----9~--7~--2-4-5--|
E|--5-5---7-7--------------------------------|
pm  * *   * *   * *   * *

(Guitar 1)
(1:34) 
(Ok this is really tough to hear but I tried my best. I had to listen to 
acoustic version to get some solid volume on this part. If you listen to the acoustic 
you'll hear it an octave higher.)
e|-----------------------------|
B|-----------10-9--------------|
G|---------------9--9----------| (3x)
D|--11-11---------11-9-11-9-7--|
A|--------9--------------------| 
E|-----------------------------| 
                                 
(Guitar 2) 
(1:34) 
(Riff 4)        
    F#5    D5     A5   E5        
e|-----------------------------| 
B|-----------------------------| 
G|--11-11--7-7-7-------9-9-9---| (3x)
D|--11-11--7-7-7--7-7--9-9-9---|
A|---9--9--5-5-5--7-7--7-7-7---|
E|----------------5-5----------|

(Both guitars: Riff 5)
(1:46)
e|---------------------------x-x-x-x--|
B|---------------------------x-x-x-x--|
G|-------------------7-7--9--x-x-x-x--|
D|--9-9-9-9-9-9-9-9--7-7--9--x-x-x-x--|
A|--9-9-9-9-9-9-9-9--5-5--7--x-x-x-x--|
E|--7-7-7-7-7-7-7-7----------x-x-x-x--|

(Chorus 2)
(at (1:51) is a little different)
(Both guitars)
e|---------------------------------x-x-x-x--|
B|---------------------------------x-x-x-x--|
G|------9~--7~--9~------9~--7~--9--x-x-x-x--|
D|--7~--9~--7~--9~--7~--9~--7~--9--x-x-x-x--|
A|--7~--7~--5~--7~--7~--7~--5~--7--x-x-x-x--|
E|--5~--------------5~-------------x-x-x-x--|

e|-----------------------------------|
B|-----------------------------------|
G|------9~--7~--9~--11~--9~--7~--9~--|
D|--7~--9~--7~--9~--11~--9~--7~--9~--|
A|--7~--7~--5~--7~---9~--7~--5~--7~--|
E|--5~-------------------------------|

(2:08) 
(Guitar 1 plays Riff 1 twice)
(When Guitar 1 starts into the second time through Riff 1, Guitar 2 plays this chord and 
it ring.)
e|-------|
B|-------|
G|--11~--|
D|--11~--|
A|---9~--|
E|-------|

(Bass only from (2:16)-(2:25))

(Guitar 1)
(probably using an effects loop instead of playing eighth notes, plays this)
e|---9--9--9--9---9--9--9--9--|
B|--10-10-10-10---9--9--9--9--|
G|--11-11-11-11--11-11-11-11--| (2x)
D|--11-11-11-11--11-11-11-11--|
A|---9--9--9--9---9--9--9--9--|
E|---x--x--x--x---x--x--x--x--|

(2:29) 
(Both guitars play their Riff 2 twice, then do this at (2:33))
e|-------------------|
B|-------------------|
G|-------------------|
D|--9-9-9-9-9-9-9-9--|
A|--9-9-9-9-9-9-9-9--|
E|--7-7-7-7-7-7-7-7--|
pm  * * * * * * * *

(Ok the piano plays for most of the chorus at (2:35), but both guitars
come in for two chords)
e|----------------------------------------------------------x-x-x-x--|
B|-------------------------------------- 8 x --- 4 x -------x-x-x-x--|
G|------------11~-----------7~--------------------7---9-9---x-x-x-x--|
D|------------11~-----------7~------------9-------7---9-9---x-x-x-x--|
A|-------------9~-----------5~------------9-------5---7-7---x-x-x-x--|
E|----------------------------------------7-----------------x-x-x-x--|
                                      pm  *       *   * *
…and I’ve been dying to get out… and even though… go… going because

(Chorus 2)
(at (2:53) is a little different)
(Both guitars)
e|---------------------------------x-x-x-x--|
B|---------------------------------x-x-x-x--|
G|------9~--7~--9~------9~--7~--9--x-x-x-x--|
D|--7~--9~--7~--9~--7~--9~--7~--9--x-x-x-x--|
A|--7~--7~--5~--7~--7~--7~--5~--7--x-x-x-x--|
E|--5~--------------5~-------------x-x-x-x--|

e|-----------------------------------|
B|-----------------------------------|
G|------9~--7~--9~--11~--9~--7~--9~--|
D|--7~--9~--7~--9~--11~--9~--7~--9~--|
A|--7~--7~--5~--7~---9~--7~--5~--7~--|
E|--5~-------------------------------|


************************************

| x  Dead note
| ~  Vibrato
| /  Slide up

************************************
Suggest correction
comments
print report bad tab
31 comments total. Showing first comments.
0 reply
monkeyarms 10 Oct 27, 2005 04:39 PM

Great tab! there are a few tiny things wrong though
the second chord for guitar 2 in the intro should be 2-4-4 starting on the E string. In the second part of the intro guitar 1 hits the chord twice each time; it's really hard to hear but he does it. And finally, you are missing most of the guitar one part in the second prechorus (1:34). nothing really big and it's still a great tab.

0 reply
tmacman001 200 Oct 29, 2005 08:48 PM

Hey thanks for the feedback monkeyarms, I'll correct the 2-4-4 chord in the intro. I'll try to figure out the second prechorus, cuz it's freakin hard to hear. But I'm standing by my intro part 2 for guitar 1. In my tab, guitar 2 hits each chord twice, and only plays two chords. Guitar 1 hits three chords total, first one twice, then one for each of the others. If you listen to the CD, my Guitar 1 part on that intro should be in the right side headphone, listen for it. Thanks again.

0 reply
tmacman001 200 Nov 03, 2005 06:27 AM

Sorry, the Guitar part should be in the LEFT side headphone.

guest
You may want to rate the tab now too:
select rating
Wanna post a correction for this tab? Suggest correction