Oops, an error
Loading. Please wait.

Be My Escape Bass Tab

version 4
version 4

Whole song

Interactive

13,189 views 27 this week
7 commentsread comments
1 2 3 4 5
excellent!
x 18
add to favorites
launch autoscroll
font size
0
reset
guitar tuner
Tab Pro tools
  • play this tab
  • loop segment
  • change instrument
  • show fretboard
  • metronome
×
Best way to learn
"Be My Escape"
Autoscroll
slow
fast
+/-
esc
set tempo
stop
Contributor
Be MY Escape
By: Relient K

Tabbed By: Taylor Smith/SLIP(SIC)KNOT

alrighty...all the tabs for this are off....
ive played this w/my band, and this is 
how we played it...

(EADG)
/=Slide up
\=slide down
x=scratch


Intro:
x1
i dont know if this is right, but it sounds like
he's playing a fill here, if it doesnt sound right,
just play the one below it...
G|-------------------|
D|-------------------|
A|--5~------------5~-|
E|------2~--2/4/5----|

THis is the other option...
G|-----------|
D|-----------|
A|--5~----5~-|
E|-----2~----|


Intro Pt. 2:
x1
if you listen really closely, this is it...
G|------------------------------------------|
D|------------------------------------------|
A|------0--99-44-55555555-00000000-77777777-|
E|--222-------------------------------------|


Verse
x1 after piano
G|------------------------------------|
D|------------------------------------|
A|--0~---2~--/5~----9~---7~---2-4-5~--|
E|------------------------------------|

Prechorus
x2                        x1
G|-----------------------|--------------------------------------------|
D|--4444-----------------|--4444--------------------------------------|
A|-------5555-0000-7777--|-------5555-0000-777\\--22222222-5555-7777\-|
E|-----------------------|--------------------------------------------|

Chorus
x1                       x1  
G|------------------------------------|
D|------------------------------------|
A|--0-0-00---7-7-77---5-5-55---7-7-77-|
E|------------------------------------|

                                          x1                                    x1
G|-------------------------------------------|------------------------------------|
D|-------------------------------------------|------------------------------------|
A|--0-0-00---7-7-77---5-5-55---7xxxx---------|--0-0-00---7-7-77---5-5-55---7-7-77-|
E|-------------------------------------------|------------------------------------|


Post Chorus:
x1
G|------------------|
D|------------------|
A|--9~~-7~~-2~~-7~~-|
E|------------------|

Verse 2:
x2
G|----------------------------------|
D|----------------------------------|
A|--000-222-555-555--9~--7~--2-4-5~-|
E|----------------------------------|

Prechorus
x2                        x1
G|-----------------------|--------------------------------------------|
D|--4444-----------------|--4444--------------------------------------|
A|-------5555-0000-7777--|-------5555-0000-777\\--22222222-5555-7777\-|
E|-----------------------|--------------------------------------------|

Chorus
x1                       x1  
G|------------------------------------|
D|------------------------------------|
A|--0-0-00---7-7-77---5-5-55---7-7-77-|
E|------------------------------------|

                                          x1                                    x1
G|-------------------------------------------|------------------------------------|
D|-------------------------------------------|------------------------------------|
A|--0-0-00---7-7-77---5-5-55---7xxxx---------|--0-0-00---7-7-77---5-5-55---7-7-77-|
E|-------------------------------------------|------------------------------------|

Post Chorus:
x1
G|------------------|
D|------------------|
A|--9~~-7~~-5~~-7~~-|
E|------------------|


Second Intro:
x1
G|------|
D|------|
A|------|
E|--2~--|

x1
theres another one of those fill things in the middle...
G|------------------------------------------|
D|------------------------------------------|
A|------0-99-44-55555555-00000000-222222-0--|
E|--222-----------------------------------4-|

G|------------------------------------------------|
D|------------------------------------------------|
A|-----0-99-44-55555555-00000000-2222222222222222-|
E|-222--------------------------------------------|


BREAK....PIANO FIDDLY THING....

x1
G|----------|
D|----------|
A|--9\\5~~--|
E|----------|

Final Prechorus:
x1
G|---------------------|
D|---------------------|
A|-22222222-5555-7777\-|
E|---------------------|

Chorus
x1                       x1  
G|------------------------------------|
D|------------------------------------|
A|--0-0-00---7-7-77---5-5-55---7-7-77-|
E|------------------------------------|

                                          x1                                    x1
G|-------------------------------------------|------------------------------------|
D|-------------------------------------------|------------------------------------|
A|--0-0-00---7-7-77---5-5-55---7xxxx---------|--0-0-00---7-7-77---5-5-55---7-7-77-|
E|-------------------------------------------|------------------------------------|
ENDING
x1
G|------------------|
D|------------------|
A|--9~~-7~~-5~~-7~~-|
E|------------------|

PIANO DEALIE...

There you go...The PROPER Be my Escape...lol...HAVE FUN!!
comments
print report bad tab
7 comments total. Showing first comments. show 1 bad comment
+4 reply
SLIP(SIC)KNOT wrote on May 18 2006, 10:50 pm

of course its bass retard this is a bass tab...

+3 reply
SLIP(SIC)KNOT wrote on May 18 2006, 10:50 pm

all of the song is bass

I want to post or [tab]
guest
You may want to rate the tab now too:
select rating
Please do not post tabs as comments. Select "correction" instead!