Oops, an error
Loading. Please wait.

Be My Escape Tab

version 4
version 4

Whole song

Interactive

3,105 views 1 this week
no commentswrite comment
1 2 3 4 5
x 5
add to favorites
launch autoscroll
font size
0
reset
how to read this tab
guitar tuner
Autoscroll
slow
fast
+/-
esc
set tempo
stop
Help us to improve Ultimate-Guitar.com Take our survey!
×
-------------------------------------------------------------------------------
			     Be My EsCaPe- Relient K
-------------------------------------------------------------------------------
Tabbed by: david d


Tuning: standard

Intro Riff Guitar 1

e|--x-----x-----x-----x-----x------------------------------------------------|
B|--10----9-----10----9-----x------------------------------------------------|
G|--11----11----11----11----9------------------------------------------------|
D|--0-----0-----0-----0-----0------------------------------------------------|
A|--x-----x-----x-----x-----x------------------------------------------------|
E|--x-----x-----x-----x-----x------------------------------------------------|

 Intro Guitar 2

e|---------------------------------------------------------------------------|
B|---------------------------------------------------------------------------|
G|--------------------7------------------------------------------------------|
D|--7--------4--------7------------------------------------------------------|
A|--7--x16---4--x16---5--x16-------------------------------------------------|
E|--5--------2--------5------------------------------------------------------|


  Preverse riff Guitar 1 (left)

e|--x--x--x------x--x--x------x--x--x------x-x-x-----x--x--x------x--x--x------x--x--x------x-x-x---------|
B|--10-10-10-----10-10-10-----9--9--9------x-x-x-----10-10-10-----10-10-10-----9--9--9------x-x-x---------| 
G|--11-11-11-----11-11-11-----11-11-11-----9-9-9-----11-11-11-----11-11-11-----11-11-11-----9-9-9---------|  
D|--0--0--0------0--0--0------0--0--0------0-0-0-----0--0--0------0--0--0------0--0--0------0-0-0---------|  x2 
A|--x--x--x------x--x--x------x--x--x------x-x-x-----x--x--x------x--x--x------x--x--x------x-x-x---------| 
E|--x--x--x------x--x--x------x--x--x------x-x-x-----x--x--x------x--x--x------x--x--x------x-x-x---------|
  
  Guitar 2 (right)

e|-----------x-------------x------------x---------x------------x------------x------------x----------x-----|
B|-----------10------------10-----------9---------9------------10-----------10-----------9----------10----|
G|-----------11------------11-----------11--------11-----------11-----------11-----------11---------11----|
D|-----------0-------------0------------0---------0------------0------------0------------0----------0-----|  x2
A|-----------x-------------x------------x---------x------------x------------x------------x----------x-----|
E|-----------x-------------x------------x---------x------------x------------x------------x----------x-----|


  Piano & Bass

e|-----------------------------------------------------------------------------|
B|-----------------------------------------------------------------------------|
G|-----------------------------------------------------------------------------|
D|-----------------------------------------------------------------------------|
A|-------------------------------------5---------------------------------------|
E|--5--------------7-----------------------------------------------------------|
   I'm giving up, on giving up slowly, I'm blending in so you won't even know me
   
e|---------------------------------------------------------------------------|
B|---------------------------------------------------------------------------|
G|---------------------------------------------------------------------------|
D|---------------------------------------------------------------------------|
A|--9--------------7---------------------------------5-----------------------|
E|---------------------------------------5------7----------------------------|
   Apart   from    this whole world that shares my  fate

  Guitar 1
e|---------------------------------------------------------------------------|
B|---------------------------------------------------------------------------|
G|------------------------------------7--------------------------------------|
D|---7-------------9------------------7--------------------------------------|
A|---7-------------9------------------5--------------------------------------|
E|---5-------------7------------------5--------------------------------------|
   And   this one  bullet you mention is my one last shot at redemption  
e|---------------------------------------------------------------------------|
B|---------------------------------------------------------------------------|
G|--11-------------9---------------------------------7-----------------------|
D|--11-------------9-----------------------7-----9---7-----------------------|
A|--9--------------7-----------------------7-----9---5-----------------------|
E|-(9)------------(7)----------------------5-----7---------------------------|
   Cause I know to live you must give your life  a  way  and

  Verse 1                             (Guitar 2)
e|------------------------------------|--------|-------------------------------|
B|------------------------------------|-10-9---|-------------------------------|
G|----------------------------7-------|------9-|------2------------9-----------|
D|------------4---------------7--x8---|--------|------2--x4--------9--x8-------|
A|------------4--x4-----------5-------|--------|------0------------7-----------|
E|------------2-----------------------|--------|-------------------------------|
   I've been housing all this doubt             And  in-sec - uri-ty     
   I've been locked inside this house    All  the   while you hold the key and
   I've been dying   to  get out      but it  might  be the death of me and even

  Prechorus
e|---------------------------------------------------------------------------|
B|---------------------------------------------------------------------------|
G|-4----4----4----4----4----4----4----4----7--7--7--7----9--9--xxxx----------|
D|-4----4----4----4----4----4----4----4----7--7--7--7----9--9--xxxx----------|
A|-2----2----2----2----2----2----2----2----5--5--5--5----7--7--xxxx----------|
E|---------------------------------------------------------------------------|

  Though there's no way of knowin where to go pomise I'm going because

  CHORUS
e|----------------------------------------------------------------------------------------xxxx|
B|----------------------------------------------------------------------------------------xxxx|
G|--2---------9---------7---------9---------2---------------9--------------7---------9----xxxx|
D|--2---------9---------7---------9---------2---------------9--------------7---------9----xxxx|
A|--0---------7---------5---------7---------0---------------7--------------5---------7----xxxx|
E|----------------------------------------------------------------------------------------xxxx|
       I  -  ve gotta get out of here I'm stuck inside this rut that I fell into by mistake
       I  -  ve gotta get out of here

e|---------------------------------------------------------------------------|
B|---------------------------------------------------------------------------|
G|------------6--------6-6---4--------4-4---2--------2-2----4----------------|
D|------------6--------6-6---4--------4-4---2--------2-2----4----------------|
A|------------4--------4-4---2--------2-2---0--------0-0----2----------------|
E|---------------------------------------------------------------------------|

     And I'm begging you I'm begging you I'm begging you to be my escape
  

Verse 2 Part 1 (play twice then go to part 2) 
e|-----------------------------------------------------|------------------------------------------------|
B|-----------------------------------------------------|------------------------------------------------|
G|-----2-------------------------2---------------------|-6----------4-----------------------2--4---7----|
D|--22------------------------22-----------------------|-x----------x-----------------------2--4---7----|
A|--00------------------------00-----------------------|-4----------2-----------------------0--2---5----|
E|--**------------------------**-----------------------|------------------------------------------------|
     I'm       giving   up    on doing this alone now  | shown me the way and now I'm trying to get there
     cause I've failed and I'm ready to be shown how
   | but
     And       this    life   sentence that I'm serving|  the   of  grace is that it makes life not fair  
     I    admit  that   I'm  every bit deserving       |    beauty


	THEN: back to Verse 1
		      Prechorus
		      Chorus
		      Intro Riff Guitar 1 2x
		      then some other stuff that you dont really need to know
Suggest correction
comments
print report bad tab
guest
You may want to rate the tab now too:
select rating
Wanna post a correction for this tab? Suggest correction