Oops, an error
Loading. Please wait.

Be My Escape Bass Tab

version 5
version 5

Whole song

Interactive

384 views 1 this week
no commentswrite comment
1 2 3 4 5
please rate
add to favorites
launch autoscroll
font size
0
reset
guitar tuner
Autoscroll
slow
fast
+/-
esc
set tempo
stop
Help us to improve Ultimate-Guitar.com Take our survey!
×
Difficulty
novice
  You can figure out the beat

   G----------------------|
   D---0------------------|
   A----------------------|              This is my first tab so leave me a
   E----------------------|              comment on it thank you.

   G----------------------|
   D----------------------|
   A-----9-4-5-0-7--------|
   E--2-------------------|
 Piano plays
   G----------------------|
   D----------------------|
   A--0-2-5-9-7-2-4-5-----|
   E----------------------|

   G---------------------|
   D---------------------|
   A--9-5-0-7-8-9--------|Times 3
   E---------------------|

   G---------------------|
   D---------------------|
   A--0-2-5--------------|
   E---------------------|

   G---------------------|
   D---------------------|
   A--0-7-5-7------------|Times 3
   E---------------------|

   G---------------------|
   D---------------------|
   A--9-5-0-7------------|
   E---------------------|

   G---------------------|
   D---------------------|
   A--0-7----------------|Times 4
   E---------------------|

   G---------------------|
   D---------------------|
   A--9-7-2-4-5----------|
   E---------------------|

   G---------------------|
   D---------------------|
   A--0-7----------------|Times 4
   E---------------------|

   G---------------------|
   D---------------------|
   A--9-7-2-4-5----------|
   E---------------------|

   G---------------------|
   D---------------------|
   A--9-5-0-7-8-9--------|Times 3
   E---------------------|

   G---------------------|
   D---------------------|
   A--0-2-5--------------|
   E---------------------|

   G-----------------------------|
   D-----------------------------|
   A--0-7-5-7------------Times 3-|
   E-----------------------------|

   G--------------------|
   D--------------------|
   A--9-7-0-7-----------|
   E--------------------|

   G----------------------|
   D----------------------|
   A-----9-4-5-0-7--------|Times 2
   E--2-------------------|

   Violin and Piano

   G----------------------|
   D----------------------|
   A--9-5-----------------|
   E----------------------|

   G----------------------|
   D----------------------|
   A----------------------|
   E--7--10-12------------|

   G---------------------|
   D---------------------|
   A--0-7-5-7------------|Times 3
   E---------------------|

   G---------------------|
   D---------------------|
   A--9-7-5-7------------|
   E---------------------|

   END

Thats my first tab hope it was good.
Suggest correction
Give kudos to tab author, rate the tab!
1 2 3 4 5
comments
print report bad tab
guest
You may want to rate the tab now too:
select rating
Wanna post a correction for this tab? Suggest correction