Oops, an error
Loading. Please wait.

Bee Your Man Tab

version 1
version 1

Whole song

354 views 1 this week
no commentswrite comment
1 2 3 4 5
1 last vote to show rating
add to favorites
launch autoscroll
font size
0
reset
how to read this tab
guitar tuner
Autoscroll
slow
fast
+/-
esc
set tempo
stop
Help us to improve Ultimate-Guitar.com Take our survey!
×
Author
Difficulty
Tabbers playing skills
intermediate
intermediate ++
-----------------------------------------------------------------------------
                                BEE YOUR MAN                   RELIENT K
-----------------------------------------------------------------------------

Tabbed by:hurricaneherman

Acoustic guitar 1:Standard Tuning
Acoustic guitar 2:Standard Tuning
Electric guitar 1:Standard Tuning
Electric guitar 2:Standard Tuning

Here is the tab for Relient K's song "Bee Your Man", from their album The Bird And The Bee Sides.
NOTE:The lyrics do not line up, so don't use them as exact guidelines.

~INTRO~

 |acoustic 1|
e|----------------------------------------------------------------|
B|----------------------------------------------------------------|
G|----2p0---------------------------------------------------------|
D|1/2-----4p3p2p0-1p0---------------------------------------------|
A|--------------------3p0-3/4p0-----------------------------------|
E|------------------------------3-5p4p3p0-3h5p3p0-3\2\1p0-3-3-----|

~VERSE~

 |acoustic 2|
e|----------------------------------------------------------------|
B|----------------------------------------------------------------|
G|----2-------2-------2-------2-------2-------2-------2-------2---|
D|----2-------2-------2-------2-------2-------2-------2-------2---|
A|----0-------0-------0-------0-------0-------0-------0-------0---|
E|----------------------------------------------------------------|
  Well I watch you wind on down the string and settle to the ground
 |acoustic 1|
e|----------------------------------------------------------------|
B|----------------------------------------------------2p0---------|
G|--------------------------------------------------------2p0-2p0-|
D|----------------------------------------------------------------|
A|----------------------------------------------------------------|
E|----------------------------------------------------------------|
 |acoustic 2|                                                     |
e|----------------------------------------------------------------|
B|----------------------------------------------------------------|
G|----------------------------------------------------------------|
D|----2-------2-------2-------2-------2-------2-------2-------2---|
A|----2-------2-------2-------2-------2-------2-------2-------2---|
E|----0-------0-------0-------0-------0-------0-------0-------0---|
Well I'll give my little hand a yank and then you'll come back 'round
 |acoustic 1|
e|----------------------------------------------------------------|
B|----------------------------------------------------------------|
G|2h5-2-----------------------------------------------------------|
D|----------------------------------------------------------------|
A|----------------------------------------------------------------|
E|--------------------------------0---0---2---4---5~--------------|
 |acoustic 2|                                                     |
e|----------------------------------------------------------------|
B|----------------------------------------------------------------|
G|----2-------2-------2-------2-----------------------7-------7---|
D|----2-------2-------2-------2-----------------------7-------7---|
A|----0-------0-------0-------0---0---0---2---4-------5-------5---|
E|----------------------------------------------------------------|
   Well just like me and you babe you're the yo-yo I'm the hand
 |acoustic 1|
e|----------------------------------------------------------------|
B|----------------------------------------------------------------|
G|----------------------------------------------------------------|
D|----------------------------------------------------------------|
A|----------------------------------------------------------------|
E|--------------------------------0---0---2---4---5~--------------|
 |acoustic 2|                                                     |
e|----------------------------------------------------------------|
B|----------------------------------------------------------------|
G|----------------------------------------------------2-------2---|
D|----2-------2-------2-------2-----------------------2-------2---|
A|----2-------2-------2-------2-----------------------0-------0---|
E|----0-------0-------0-------0---0---0---2---4-------------------|
     Well say you'll be my baby and I swear I'll be your man

~SOLO~

 |acoustic 1|
e|--------------------0h1h2h3-5p3\2p0-------------0---------------|
B|------------1h2h3/4-----------------3---------------------------|
G|--------2-------------------------------0h1---0h1---1-----------|
D|--------------------------------------------------2-----2p0-----|
A|------------------------------------------------------------3p2p|
E|----------------------------------------------------------------|
 |acoustic 2|                                                     |
e|----------------------------------------------------------------|
B|----------------------------------------------------------------|
G|----2-------2---------------------------------------------------|
D|----2-------2---------------------------------------------------|
A|----0-------0---------------------------------------------------|
E|----------------------------------------------------------------|

 |acoustic 1|
e|--------------------0h1h2h3-5p3\2p0-----------12-------------------------|
B|------------1h2h3/4-----------------3/-----------------------------------|
G|--------2-------------------------------12h13----12h13---14b-r12h13h14--\|
D|-------------------------------------------------------------------------|
A|0------------------------------------------------------------------------|
E|-------------------------------------------------------------------------|

~Talking Session~

I changed the tablature size, due to notes on the 12, 13 and 14 fret. Each -
equals an thirty second note(instead of sixteenths).

 |electric 1|
e|5-------7-------9-------12B-12--12r-10-h12-p10------12----------|
B|------------------------------------------------12--------------|
G|----------------------------------------------------------------|
D|----------------------------------------------------------------|
A|----------------------------------------------------------------|
E|----------------------------------------------------------------|
        All right y'all now it's time for a Tennessee 
 |electric 2|
e|----------------------------------------------------------------|
B|----------------------------------------------------------------|
G|----------------------------------------------------------------|
D|----------------------------------------------------------------|
A|----------------------------------------------------------------|
E|12--12--12--12--12--12--12--12--12--12-\10\-9-h10---5-----------|
           Sized oblige to the good fans of Relient K
 |electric 1|
e|----------------------------------------------------------------|
B|----------------------------------------------------------------|
G|----------------------------------------------------------------|
D|--------2-----------2------------2------------------------------|
A|----------------------------------------------------------------|
E|3-h-4-------3-h-4-------3-h-4-----------3-h-4---0---------------|
                For buying the Nashville TennessEP
 |electric 1|
e|----------------------------------------------------------------|
B|-------------------------------------------(slow slide)---------|
G|------------------------------------------------2/--------------|
D|------------------------------------------------2/--------------|
A|------------------------------------------------0/--------------|
E|----------------------------------------------------------------|
 |electric 2|                                                     |
e|----------------------------------------------------------------|
B|----------------------------------------------------------------|
G|----------------------------------------------------------------|
D|----------------------------------------------------------------|
A|--------12------12-h14--12B-----12-\10--------------------------|
E|12--12------12--------------------------12-p10--5---------------|
                But thank you very much from John
 |electric 1|
e|--------------------------------12------11----------------------|--------|
B|--------------------------------x-------x-----------------------|--------|
G|14------12------12--------------13B-r---12B-r-------------------|--------|
D|12B-r---9B--r---11B-9/11----------------------------------------|--------|
A|----------------------------------------------------------------|--------|
E|----------------------------------------------------------------|--------|
 |electric 2|                                                     |        |
e|----------------------------------------------12--17--15--12--9-|5~------|
B|----------------------------------------------------------------|--------|
G|----------------------------------------------------------------|--------|
D|----------------------------------------------------------------|--------|
A|----------------------------------------------------------------|--------|
E|----------------------------------------------------------------|--------|
 Mat John Mat and Dav- Ethan and I'd like to conclude with five great things
                            about America
 |acoustic 2|
e|----------------------------2h4---------------------------2h4/7/|9-------|
B|--------------------------2-----------------------oh1/2/3-------|--------|
G|----------------------2h4-----------------------2---------------|--------|
D|----------------2h3h4---------------------2h3h4-----------------|--------|
A|--------0h2/3/4-------------------0h2/3/4-----------------------|--------|
E|oh1/2/3---------------------------------------------------------|--------|
                   Freedom Justice America and ah

~OUTRO~

 |acoustic 1|
e|----------------------------------------------------------------|
B|----------------------------------------------------------------|
G|----2p0---------------------------------------------------------|
D|1/2-----4p3p2p0-1p0---------------------------------------------|
A|--------------------3p0-3/4p0-----------------------------------|
E|------------------------------3-5p4p3p0-3h5p3p0-3\2\1p0-3-------|
 |acoustic 2|                                                     |
e|----------------------------------------------------------------|
B|----------------------------------------------------------------|
G|--------------------------------------------------------2-------|
D|--------------------------------------------------------2-------|
A|--------------------------------------------------------0-------|
E|----------------------------------------------------------------|
 |electric 1|                                                     |
e|--------------------------------------------------------0-------|
B|--------------------------------------------------------0-------|
G|--------------------------------------------------------1-------|
D|--------------------------------------------------------2-------|
A|--------------------------------------------------------2-------|
E|--------------------------------------------------------0-------|
              What's that last one right Taco Bell


The next half of the song is them talking about their new album,
no instruments.
=============================================================================
/ = slide up
\ = slide down
h = hammer on
p = pull off
B = whole bend
b = half bend
r = release
~ = vibrato

I hope you enjoy this tab, and that it was easy to follow.

Peace, Love, I'm out.
Suggest correction
Give kudos to tab author, rate the tab!
1 2 3 4 5
comments
print report bad tab
guest
You may want to rate the tab now too:
select rating
Wanna post a correction for this tab? Suggest correction