Oops, an error
Loading. Please wait.

Best Thing Tab

version 1
version 1

Whole song

Interactive

15,228 views 1 this week
6 commentsread comments
1 2 3 4 5
accurate
x 4
add to favorites
launch autoscroll
font size
0
reset
how to read this tab
guitar tuner
Tab Pro tools
  • play this tab
  • loop segment
  • change instrument
  • show fretboard
  • metronome
×
Best way to learn
"Best Thing"
Autoscroll
slow
fast
+/-
esc
set tempo
stop
Difficulty
novice
The Best Thing
Relient K
Five Score and Seven Years Ago

Drop D tuned down half a step.

.... = palmute

eb|--------------------------------------------------------|
Bb|--------------------------------------------------------|
Gb|--------------------------------------------------------|
Db|-10------------2-----3-------12-------5-------10--------|
Ab|-10------------2-----3-------12-------5-------10--------|
Db|-10------------2-----3-------12-------5-------10--------|

VERSE
eb|-------------------------------------------------------|
Bb|-------------------------------------------------------|
Gb|-------------------------------------------------------|
Db|-10-10-10-10-10--10-10-10-10-10--22-22222--33-33333----|
Ab|-10-10-10-10-10--10-10-10-10-10--22-22222--33-33333----|
Db|-10-10-10-10-10--10-10-10-10-10--22-22222--33-33333----|
          ........        ........     .....     .....

eb|--------------------------------|
Bb|--------------------------------|
Gb|--------------------------------|
Db|-12-12-12-12-12-12-12--55-55555-|
Ab|-12-12-12-12-12-12-12--55-55555-|
Db|-12-12-12-12-12-12-12--55-55555-|
          ..............     .....        

repeat and then..

eb|-----------------------|
Bb|-----------------------|
Gb|-----------------------|
Db|-33333333333-----------|
Ab|-33333333333-----------|
Db|-33333333333-----------|
    .....slowly release


CHORUS
eb|----------------------------------------------------------------|
Bb|----------------------------------------------------------------|
Gb|----------------------------------------------------------------|
Db|-10-10-10-10-10-10-10-10---7777777777777777---33333333-55555555-|
Ab|-10-10-10-10-10-10-10-10---7777777777777777---33333333-55555555-|
Db|-10-10-10-10-10-10-10-10---7777777777777777---33333333-55555555-|


eb|-----------------------|
Bb|-----------------------|
Gb|-----------------------|
Db|-10--------------------|
Ab|-10--------------------|
Db|-10--------------------|

VERSE

BRIDGE/Pre Chorus
eb|-------------------------------------------------------------------|
Bb|-------------------------------------------------------------------|
Gb|-------------------------------------------------------------------|
Db|-3------------5--------------7-------------10-10-10-10-10-10-10-10-|
Ab|-3------------5--------------7-------------10-10-10-10-10-10-10-10-|
Db|-3------------5--------------7-------------10-10-10-10-10-10-10-10-|
                                              .......................

eb|--------------------------------------|
Bb|--------------------------------------|
Gb|--------------------------------------|
Db|-12--12--12--12--5--5--5--5--33333333-|
Ab|-12--12--12--12--5--5--5--5--33333333-|
Db|-12--12--12--12--5--5--5--5--33333333-|


CHORUS
eb|----------------------------------------------------------------|
Bb|----------------------------------------------------------------|
Gb|----------------------------------------------------------------|
Db|-10-10-10-10-10-10-10-10---7777777777777777---33333333-55555555-| x2
Ab|-10-10-10-10-10-10-10-10---7777777777777777---33333333-55555555-|
Db|-10-10-10-10-10-10-10-10---7777777777777777---33333333-55555555-|

eb|-------------------------------------|
Bb|-------------------------------------|
Gb|----------77777777-------------------|
Db|-77777777-77777777-33333333-55555555-|
Ab|-77777777-55555555-33333333-55555555-|
Db|-77777777-00000000-33333333-55555555-|

Bridge /Bridge 2

It's mainly piano but you can play along with guitar

eb|--------------------------------------------|
Bb|--------------------------------------------|
Gb|--------------------------------------------|
Db|-7-----------3------------10-----------5----|
Ab|-7-----------3------------10-----------5----|
Db|-7-----------3------------10-----------5----|

eb|-----------------------------------------------------------------------
Bb|-----------------------------------------------------------------------
Gb|-----------------------------------------------------------------------
Db|-0000000000000000-88888888888888-8-8-3-33333333333333-5555555555555555-
Ab|-0000000000000000-88888888888888-8-8-3-33333333333333-5555555555555555-
Db|-0000000000000000-88888888888888-8-8-3-33333333333333-5555555555555555-
    ................ ..............       .............. ................

CHORUS
eb|----------------------------------------------------------------|
Bb|----------------------------------------------------------------|
Gb|----------------------------------------------------------------|
Db|-10-10-10-10-10-10-10-10---7777777777777777---33333333-55555555-| 
Ab|-10-10-10-10-10-10-10-10---7777777777777777---33333333-55555555-|
Db|-10-10-10-10-10-10-10-10---7777777777777777---33333333-55555555-|

eb|-------------------------------------|
Bb|-------------------------------------|
Gb|----------77777777-------------------|
Db|-77777777-77777777-33333333-55555555-|
Ab|-77777777-55555555-33333333-55555555-|
Db|-77777777-00000000-33333333-55555555-|

eb|----------------------------------------------------------------|
Bb|----------------------------------------------------------------|
Gb|----------------------------------------------------------------|
Db|-10-10-10-10-10-10-10-10---7777777777777777---33333333-55555555-| 
Ab|-10-10-10-10-10-10-10-10---7777777777777777---33333333-55555555-|
Db|-10-10-10-10-10-10-10-10---7777777777777777---33333333-55555555-|

eb|-------|
Bb|-------|
Gb|-------|
Db|-10----|
Ab|-10----|
Db|-10----|


Th'end.
comments
print report bad tab
6 comments total. Showing first comments.
0 reply
shugo449 wrote on March 30 2007, 08:25 am

so amazing live

-1 reply
Nubz0r wrote on May 6 2007, 09:36 pm

good attempt, but all wrong.

shouldn't go from 10 down to 2....should start low and go up.

0 reply
coldfry1 wrote on March 7 2009, 02:58 pm

awesomeness. good job!

I want to post or [tab]
guest
You may want to rate the tab now too:
select rating
Please do not post tabs as comments. Select "correction" instead!