Oops, an error
Loading. Please wait.

Bite My Tongue Bass Tab

version 1
version 1

Whole song

Interactive

3,626 views 1 this week
3 commentsread comments
1 2 3 4 5
accurate
x 6
add to favorites
launch autoscroll
font size
0
reset
guitar tuner
Autoscroll
slow
fast
+/-
esc
set tempo
stop
Help us to improve Ultimate-Guitar.com Take our survey!
×
Difficulty
novice
Standard Tuning

Intro:
G|------------------------------------------------------|
D|------------------------------------------------------|
A|---------------------4(16)----------------------------| x1
E|--2(16)--0(8)--4(8)---------4(16)--2(16)--0(8)--4(8)--|

Verse:
G|--------------------|
D|--------------------|
A|--4(16)-------------| x4
E|--------6(8)--2(8)--|

Pre-Chorus:
G|---------------------|
D|---------------------|
A|---------------------| x4 
E|--2(8)--4(8)--6(16)--|

Chorus:
G|----------------------------------|
D|----------------------------------|
A|--4(16)---------------------------| x1
E|--------4(16)--2(16)--0(8)--4(8)--|

Go back to Verse x2

Pre-Chorus:
G|---------------------|
D|---------------------|
A|---------------------| x2  Note: Second time through leave of the 6(16)
E|--2(8)--4(8)--6(16)--|

Chorus x2

Bridge:
G|--------------|      |--------------|
D|--------------|      |--------------|
A|--------4-----| x2   |--------------| x1
E|--6--2-----4--|      |--2(8)--4(8)--|

Outro:
G|---------------------------------|      |-----------------------|
D|---------------------------------|      |-----------------------|
A|--------------------4(16)--------| x2   |--------------------4--| x1
E|--2(16)--0(8)--4(8)-------4(16)--|      |--2(16)--0(8)--4(8)----|

END
Let me know what you think. This is my first tab...


Suggest correction
What's this?
You can suggest a correction to this tab. Community and Mods will review your correction and vote to approve or reject it.
comments
print report bad tab
3 comments total.
0 reply
Niklaus_360 241 wrote on December 30 2007, 06:56 am

Good, but the Chorus needs fixing, the open E is wrong...

0 reply
isaachary 92 wrote on August 10 2008, 02:47 pm

I did fix this but this was before I had a profile on here. The open E on any spot you see should be changed to 1st fret F. Keep the numbering the same

0 reply
Niklaus_360 241 wrote on September 8 2008, 12:23 pm

Yeah, I figured out the E->F thing, but it's nice to see it corrected in the new version you've submitted =)

guest
You may want to rate the tab now too:
select rating
Please do not post tabs as comments. Select "correction" instead!