Oops, an error
Loading. Please wait.

Breakdown Tab

1,663 views 1 this week
no commentswrite comment
1 2 3 4 5
please rate
add to favorites
launch autoscroll
font size
0
reset
how to read this tab
guitar tuner
Autoscroll
slow
fast
+/-
esc
set tempo
stop
Help us to improve Ultimate-Guitar.com Take our survey!
×
Author
Intro (Part 1)
Lead (Palm Mute.  4th time, don't palm mute the 6s.)
e------------------------------|
b------------------------------|
g-99999999-777777-666666666666-| 4x
d------------------------------|
a------------------------------|
e------------------------------|

Rhythm
e--------------------|
b--------------------|
g-7~---7~---7~-9~----|
d-7~---7~---7~-9~-7~-|
a-5~---5~---5~-7~-7~-|
e-----------------5~-|

Intro (Part 2)
Lead
e------------------------------|
b------------------------------|
g-99999999-777777-666666666666-|

e---------------------------------|
b---------------------------------|
g-99999999-777777-666666666-6-7-6-|

e------------------------------|
b------------------------------|
g-99999999-777777-666666666666-|

e------------------------|
b------------------------|
g-6----6----6-7-6----6---|
d---7----7--------7----7-|

Rhythm (Not in rhythm.  Time it)
e----------------------------------------------------|
b----------------------------------------------------|
g------------------7777777777777777------------------|
d-7777777777777777-7777777777777777-9999999999999999-|
a-7777777777777777-5555555555555555-9999999999999999-|
e-5555555555555555------------------7777777777777777-|

e------------------------------------|
b------------------------------------|
g-77777777-99999999------------------|
d-77777777-99999999-7777777777777777-|
a-55555555-77777777-7777777777777777-|
e-------------------5555555555555555-|

Verse
e--------------------------------------------------xx-xxxx-xx-xxx-|
b--------------------------------------------------xx-xxxx-xx-xxx-|
g-----6-777777777777--------------7777777-99999999-xx-xxxx-xx-xxx-| 2x
d-7~--6-777777777777-999999999999-7777777-99999999-xx-xxxx-xx-xxx-|
a-7~--4-555555555555-999999999999-5555555-77777777-xx-xxxx-xx-xxx-|
e-5~-----------------777777777777------------------xx-xxxx-xx-xxx-|

pre-chorus
e-------------xxx-xxx-       ---------|
b-------------xxx-xxx-       ---------| leads
g-7~--9~------xxx-xxx-       -7~--9~--| into
d-7~--9~--7~--xxx-xxx- 4x    -7~--9~--| chorus
a-5~--7~--7~--xxx-xxx-       -5~--7~--|
e---------5~--xxx-xxx-       ---------|


chorus
(Rhythm)
e-------------------------------------|
b-------------------------------------|
g----------77777777----------99999999-|
d-99999999-77777777-77777777-99999999-|
a-99999999-55555555-77777777-77777777-|
e-77777777----------55555555----------|

(Lead)
e--------------------------------------|
b--------------------------------------|
g----------77777777----------99-9/1111-|
d-99999999-77777777-77777777-xx-x/-x-x-|
a-99999999-55555555-77777777-77-7/-9-9-|
e-77777777----------55555555-----------|

Bridge
e-----------------------------|
b-----2-----2-----3p2---2---2-|
g---2---2-----2-----------2---|
d-2-------2-----2-----2-------|
a-----------------------------|
e-----------------------------|

e------------------------------|
b------2-----2-----3p2---2---2-|
g----2---2-----2-----------2---|
d--0-------0-----0-----0-------|
a------------------------------|
e------------------------------|

Other Guitar
e--------|
b--------|
g-----9~-| several times
d-6-7----| quietly
a--------|
e--------|

Intro Part 1
Intro Part 2
Chorus

Chorus 2
Rhythm
e-------------------------|
b-------------------------|
g-------7--7--------9--9--|
d-9--9--7--7--7--7--9--9--|
a-9--9--5--5--7--7--7--7--|
e-7--7--------5--5--------|

Lead
e-------------------------------|
b-------------------------------|
g-------7--7--------9--9/11-11--|
d-9--9--7--7--7--7--x--x/-x--x--|
a-9--9--5--5--7--7--7--7/-9--9--|
e-7--7--------5--5--------------|

Chorus

Pretty Much it.  Gotta time it.
Suggest correction
What's this?
You can suggest a correction to this tab. Community and Mods will review your correction and vote to approve or reject it.
comments
We did not receive enough feedback on this tab! Please rate:
print report bad tab
1 2 3 4 5
guest
You may want to rate the tab now too:
select rating
Please do not post tabs as comments. Select "correction" instead!