Oops, an error
Loading. Please wait.

Bummin chords

3,472 views 6 this week
no commentswrite comment
1 2 3 4 5
x 17
add to favorites
×
Save as Personal and add changes to this tab that will be seen only by you. Learn more ›
×
You can save this tab as Personal to edit and correct it or add notes. All changes will be seen only by you. Learn more »
launch autoscroll
font size
0
reset
transpose
0
reset
display chords
guitar tuner
edit
Autoscroll
slow
fast
+/-
esc
set tempo
stop
Author
Difficulty
Strumming
There is no strumming pattern for this song yet. and get +5 IQ
[Intro] Riff

e|-------------------------------------------------------------------------------------------|
b|-------------------------------------------------------------------------------------------|
g|-------------------------------------------------------------------------------------------|
D|--9---11----------------9---11----------------9----11--------------------------------------|
A|--0----0-----9---11-----0----0-----9---11-----0----0-----9---11---11---11---11---11--------|
E|-------------0---0-----------------0---0-----------------0---0----0----0----0----0---------|

e|-------------------------------------------------------------------------------------------|
b|-------------------------------------------------------------------------------------------|
g|-------------------------------------------------------------------------------------------|
D|--9---11----------------9---11----------------9----11---------------11---11---11---9-------|
A|--0----0-----9---11-----0----0------9---11----0----0-------9---11---0----0----0----0-------|
E|-------------0---0------------------0---0------------------0---0---------------------------|


[Verse 1]

(A)              E               A                E
You can have my life, I’m sad.  You can have the beat in my heart.
 A              E               A              E
You can be my light, pizzazz.  You can be my spark in the dark.
     A                 E                                A                E
But if I’m out there acting the bum I’ll become one, so no more frigid nights in the cold.
A              E                                             D     A
I would fall asleep in the lawn till the sun rose, 14 karat gold, gold.
 A               E
You can have my life, I’m sad.


[Chorus]

C#m       B                 A          E
Broken downtown down on Wedgewood and 8th.
          C#m               B            A        E
And I’m bleeding like a heartache, get ready to break.
         C#m          B            A       E
And then on down the road comes another mistake.
       C#m                        B
Try to hide as I might, I can’t quite get it right.
       E        A     B            E         A
I’m bummin’.                 I’m bummin’. 


[Verse 2]

A                E
We can ride the bus all around in this town, I’m on it.
A             E
We can fall asleep on the ground by the sound, I want it.
   A               E                                                    D      A
Picture perfect, matted and framed with my name right on it.  14 Karat gold, gold.
 A               E
You can have my life, I’m sad.


[Chorus 2]

 C#m       B                A          E
Broken downtown down on Wedgewood and 8th.
          C#m               B            A        E
And I’m bleeding like a heartache, get ready to break.
        C#m           B            A       E
And then on down the road comes another mistake.
       C#m                        B
Try to hide as I might, I can’t quite get it right.

I’m
 C#m                B                 A          E
Broken (bummin’) downtown down on Wedgewood and 8th.
           C#m               B            A        E
Yeah I’m bleeding like a heartache, get ready to break.
            C#m           B             A      E
I’ve been burning in the sun, and I’m barely awake.
       C#m                        B
Try to hide as I might, I can’t quite get it right.
       E        A                  E         A
I’m bummin’.                 I’m bummin’. 


[Bridge]

 F#m                                       B
I can’t afford this bummin’, no.  I can’t afford this bummin’, no.
 F#m                                       B
I can’t afford this bummin’, no.  I can’t afford this bummin’, no.
   F#m                                            B
So take this life you gave me, save me from vices, oh.
 Riff 1
I can’t afford this bummin’, no I’m in a crisis, oh.
   Riff 1
So take this life you gave me, save me from my vices.


[Chorus 3]

      A           E           A
I’m bummin’.            I’m bummin’.
  E
Broken downtown down on Wedgewood and 8th.
           A
And I’m bleeding like a heartache, get ready to break.
         E
And then on down the road comes another mistake.
        A
Try to hide as I might, I can’t quite get it right.
    Riff 1
I’m bummin’.  (I can’t afford this bummin’, no I’m in a crisis, oh.)
    Riff 1
I’m bummin’.  (So take this life you gave me, save me from my vices.)

 

Riff 1
e|-------------------------------------------------------------------------------------------|
B|-------------------------------------------------------------------------------------------|
G|-------------------------------------------------------------------------------------------|
D|--9---11----------------9---11----------------9----11--------------------------------------|
A|--0----0------9---11----0----0------9---11----0----0------9---11---11---11---11---11-------|
E|--------------0---0-----------------0---0-----------------0---0-----0----0---0----0--------|

            
            
Suggest correction
Creating personal tab
Creating personal tab
You can edit any tab online and save it as your Personal.

You can edit, replace or remove any tab part or add personal notes – all changes will be seen only by you.

Personal tabs can be accessed anytime from any device, even offline.
Learn more »
comments
print report bad tab
guest
You may want to rate the tab now too:
select rating
Wanna post a correction for this tab? Suggest correction