Oops, an error
Loading. Please wait.

Candlelight Chords

version 3
version 3

Whole song

2,251 views 1 this week
1 commentread comment
1 2 3 4 5
please rate
add to favorites
launch autoscroll
font size
0
reset
transpose
0
reset
display chords
guitar tuner
Tab Pro tools
  • play this tab
  • loop segment
  • change instrument
  • show fretboard
  • metronome
×
Best way to learn
"Candlelight"
Autoscroll
slow
fast
+/-
esc
set tempo
stop
Contributor
Difficulty
intermediate
Hi! this one is by Relient K entitled "Candlelight"
___The song is on 3rd fret___
Please rate :)

Tabbed by: Phacha010
Email: cag_nor@hotmail.com

(x2)
e|--------------------------------------------------------------------------|
B|----0---3--0-----0---5--0-----0---7--0-----0---5--0-----------------------|
G|--0---0--------0---0--------0---0--------0---0----------------------------|
D|--------------------------------------------------------------------------|
A|--------------------------------------------------------------------------|
E|--------------------------------------------------------------------------|

e|----0---3--0-----0---5--0-----0---7--5-----0----5--3----------------------|
B|--5---5--------5---5--------5---5--------5---5----------------------------|
G|--------------------------------------------------------------------------|
D|--------------------------------------------------------------------------|
A|--------------------------------------------------------------------------|
E|--------------------------------------------------------------------------|

VERSE
e|--------------------------------------------------------------------------|
B|----0---3--0-----0---5--0-----0---7--0-----0---5--0-----------------------|
G|--0---0--------0---0--------0---0--------0---0----------------------------|
D|--------------------------------------------------------------------------|
A|--------------------------------------------------------------------------|
E|--------------------------------------------------------------------------|

e|----0---7--5-----0---5--3-------------------------------------------------|
B|--5---5--------5---5------------------------------------------------------|
G|--------------------------------------------------------------------------|
D|--------------------------------------------------------------------------|
A|--------------------------------------------------------------------------|
E|--------------------------------------------------------------------------|

Bridge
    A                          C
She's almost brighter than the sun
                    G
Seems to me to be unfair
                     A
When you consider everyone
                       C
Who pales when they compare

Chord
 G
Can't hold a candle to her
                             C
Cause all the moths get in the way
And they'll begin to chew her
                         G
Entire attire until it frays
For she outshines anyone whoever might
 A              C                 G
Dare to bask in the same candlelight


e|--------------------------------------------------------------------------|
B|----0---3--0-----0---5--0-----0---7--0-----0---5--0-----------------------|
G|--0---0--------0---0--------0---0--------0---0----------------------------|
D|--------------------------------------------------------------------------|
A|--------------------------------------------------------------------------|
E|--------------------------------------------------------------------------|

e|----0---3--0-----0---5--0-----0---7--5-----0----5--3----------------------|
B|--5---5--------5---5--------5---5--------5---5----------------------------|
G|--------------------------------------------------------------------------|
D|--------------------------------------------------------------------------|
A|--------------------------------------------------------------------------|
E|--------------------------------------------------------------------------|

Verse
(x2)
e|--------------------------------------------------------------------------|
B|----0---3--0-----0---5--0-----0---7--0-----0---5--0-----------------------|
G|--0---0--------0---0--------0---0--------0---0----------------------------|
D|--------------------------------------------------------------------------|
A|--------------------------------------------------------------------------|
E|--------------------------------------------------------------------------|

e|----0---7--5-----0---5--3-------------------------------------------------|
B|--5---5--------5---5------------------------------------------------------|
G|--------------------------------------------------------------------------|
D|--------------------------------------------------------------------------|
A|--------------------------------------------------------------------------|
E|--------------------------------------------------------------------------|

Bridge2
   A                        C
She's like an ancient artifact
                                  G
Something you're lucky to have found
                                     A
She'll pinch the nerves in all the necks
                             C
When she turns those heads around


Chord
 G
Can't hold a candle to her
                             C
Cause all the moths get in the way
And they'll begin to chew her
                         G
Entire attire until it frays
For she outshines anyone whoever might
 A              C                 G
Dare to bask in the same candlelight


 (x2)
e|--------------------------------------------------------------------------|
B|----0---3--0-----0---5--0-----0---7--0-----0---5--0-----------------------|
G|--0---0--------0---0--------0---0--------0---0----------------------------|
D|--------------------------------------------------------------------------|
A|--------------------------------------------------------------------------|
E|--------------------------------------------------------------------------|

e|----0---3--0-----0---5--0-----0---7--5-----0----5--3----------------------|
B|--5---5--------5---5--------5---5--------5---5----------------------------|
G|--------------------------------------------------------------------------|
D|--------------------------------------------------------------------------|
A|--------------------------------------------------------------------------|
E|--------------------------------------------------------------------------|


Bridge3
    A                          C
She's almost brighter than the sun
                    G
Seems to me to be unfair
                     A
When you consider everyone
                       C
Who pales when they compare


Chord
 G
Can't hold a candle to her
                             C
Cause all the moths get in the way
And they'll begin to chew her
                         G
Entire attire until it frays
For she outshines anyone whoever might
 A              C                 G
Dare to bask in the same candlelight
comments
We did not receive enough feedback on this tab! Please rate:
print report bad tab
1 2 3 4 5
1 comment total.
0 reply
dakotaph wrote on April 16 2013, 05:01 pm

I think the intro riff is slightly off.
e|----3---3--0-----3---5--0-----3---7--5-----3----5--3--3-------------------|
B|--5---5--------5---5--------5---5--------5---5----------------------------|
G|--------------------------------------------------------------------------|
D|--------------------------------------------------------------------------|
A|--------------------------------------------------------------------------|
E|--------------------------------------------------------------------------|

I think it sounds closer. The only grievance I have with what it on the tab is that a 5 on the B string is a 0 on the e string, and the triplication of notes doesn't sound right to me.

I want to post or [tab]
guest
You may want to rate the tab now too:
select rating
Please do not post tabs as comments. Select "correction" instead!