Oops, an error
Loading. Please wait.

Chapstick Chapped Lips And Things Like Chemistry Tab

version 2
version 2

Whole song

Interactive

877 views 3 this week
2 commentsread comments
1 2 3 4 5
accurate
x 4
add to favorites
launch autoscroll
font size
0
reset
how to read this tab
guitar tuner
Tab Pro tools
  • play this tab
  • loop segment
  • change instrument
  • show fretboard
  • metronome
Autoscroll
slow
fast
+/-
esc
set tempo
stop
Contributor
Um...ya, this is my first tab, so I realize that is might suck and have a lot
of mistakes ... so PLEASE make corrections, rate it, and e-mail me at
slinkyslide@hotmail.com with any corrections. Thanks! 

Intro   
 e|----  
 B|-0~-  <--- Guitar 1 basically plays this throughout the entire song,
 G|----         except for its solo
 D|----  
 A|----  
 E|----  

"Ok, so...who doesn't own a cellphone?"
e|------------------------------------
B|------------------------------------
G|-4-----3----------------------------
D|-4-----3-----6-----2--(x2)---x-x-x--
A|-2-----1-----6-----2---------x-x-x--
E|-------------4-----0---------x-x-x--

"Cause theme parks are so much more fun.."

e|--------------------------------------
B|--------------------------------------
G|-------------2------------------------
D|-2---4---6---4---2-2-2--(x2)-2-2-2-4--
A|-2---4---6---4---2-2-2-------2-2-2-4--
E|-0---2---4-------0-0-0-------0-0-0-2--

"They're starting something..."
e|------------------
B|------------------
G|-4----------------
D|-4---2---4--(x6)--
A|-2---2---4--------
E|-----0---2--------

"So I guess I'll have to wait a lot..."
e|----------------
B|----------------
G|-------------4--
D|-6---2---4---4--
A|-6---2---4---2--
E|-4---0---2------

"Ok, so...who doesn't own a cellphone?"
e|-----------------0-0-0--------------------------
B|------------------------------------------------
G|-4---3-------------------4---3------------------
D|-4---3---6---2-----------4---3---6---2---x-x-x--
A|-2---1---6---2-----------2---1---6---2---x-x-x--
E|---------4---0-------------------4---0---x-x-x--

"Cause theme parks are so much more fun.."

e|--------------------------------------
B|--------------------------------------
G|-------------2------------------------
D|-2---4---6---4---2-2-2--(x2)-2-2-2-4--
A|-2---4---6---4---2-2-2-------2-2-2-4--
E|-0---2---4-------0-0-0-------0-0-0-2--

"They're starting something..."
e|------------------
B|------------------
G|-4----------------
D|-4---2---4--(x6)--
A|-2---2---4--------
E|-----0---2--------

"So I guess I'll have to wait a lot til 8 o'clock comes..."
e|------------
B|------------
G|------------
D|-6---2---4--
A|-6---2---4--
E|-4---0---2--

"...around"
(acoustic) B

"When it comes to relationships..."
(acoustic) B  E F#  (x3)

"It's chapstick and chapped lips and things like chemistry"
e|----------------
B|----------------
G|----------------
D|-6---4---2---4--
A|-6---4---2---4--
E|-4---2---0---2--

"It's chapstick and chapped lips and things like...
chapstick and chapped lips and things like..."
e|----------------------
B|----------------------
G|-2---2----------------
D|-4---4---2---4--(x3)--
A|-4---4---2---4--------
E|---------0---2--------

"...chemistry"
e|----------------  |-----------------------
B|----------------  |----------------------- 
G|----------------  |-----2---1---2---------
D|-6---6---4---2--  |-2---4---3---4---x---4-  <-- keeps playing, through 
A|-6---6---4---2--  |-2---4---3---4---x---4-      the solo, all the way 
E|-4---4---2---0--  |-0---------------x---2-      to the end of the song.

Guitar 1 solo

e|-12-7-11-7-9-7-11-9-7---7-9-11-9-7-12-11-9-11-9-7---7-9-11-7
B|----------------------9---------------------------9---------
G|------------------------------------------------------------
D|------------------------------------------------------------
A|------------------------------------------------------------
E|------------------------------------------------------------

Ends on 
e|----
B|----
G|-2--
D|-4--
A|-4--
E|----

That's it! Hope you like it! :)
comments
print report bad tab
2 comments total.
0 reply
mmmskittles wrote on April 9 2003, 12:00 am

Umm... for the parts under "cause theme parks are so much more fun", it should be 4
4
2 instead of
2
4
4. Sorry my mistake.

0 reply
FalloutGREEN182 wrote on March 9 2006, 07:20 pm

Great tab

I want to post or [tab]
guest
You may want to rate the tab now too:
select rating
Please do not post tabs as comments. Select "correction" instead!