Oops, an error
Loading. Please wait.

Charles In Charge Bass Tab

version 1
version 1

Whole song

Interactive

607 views 1 this week
2 commentsread comments
1 2 3 4 5
accurate
x 3
add to favorites
launch autoscroll
font size
0
reset
guitar tuner
Autoscroll
slow
fast
+/-
esc
set tempo
stop
Help us to improve Ultimate-Guitar.com Take our survey!
×
song: Charles in charge 
band: Relient K 
album: Relient K (self-titled) 



        *** this is an awesome song, it's really easy to play. enjoy*** 

G|------------------------------------------| 
D|------------------------------------------| 
A|------------1-1-1-1-------------3-3-3-3---| 
E|-1-1-1-1------------1-1-1-1---------------| 

That is what "they" say is that 
Suggest correction
Give kudos to tab author, rate the tab!
1 2 3 4 5
comments
print report bad tab
2 comments total.
0 reply
registered 10 wrote on September 21 2002, 12:00 am

G|--------------------|
D|--------------------|
A|----1*-----3*--1--0-|
E|-1*----1*-----------|

G|--------------------|
D|--------------------|
A|----1*-----3--------|
E|-1*----1*-----------|

(* play as many times as required)

It's a pretty simple song just play along with the song to figure out the where to play things, It's not in order so thats up to you to figure out.






0 reply
hnfan4eva 21 wrote on September 13 2008, 06:18 pm

yeah the one above is right

guest
You may want to rate the tab now too:
select rating
Please do not post tabs as comments. Select "correction" instead!