Oops, an error
Loading. Please wait.

Collapsible Lung Bass Tab

389 views 3 this week
4 commentsread comments
1 2 3 4 5
excellent!
x 8
add to favorites
launch autoscroll
font size
0
reset
guitar tuner
Tab Pro tools
  • play this tab
  • loop segment
  • change instrument
  • show fretboard
  • metronome
×
Best way to learn
"Collapsible Lung"
Autoscroll
slow
fast
+/-
esc
set tempo
stop
Contributor
Hey, everyone. I thought this song was awesome compared to the overall suckiness of the
album. (I really think this is their lowest point as a group--they're punk not pop.)This
is my first bass tab, please bear with me if it's off a little bit. I'm 100% positive 
this is fully correct, though.
(PLEASE RATE AND CHECK OUT MY OTHER TABS [AND RATE THEM, TOO.] I REALLY NEED SOME STARS :/)

Key: ~ let ring

Intro (optional; it's not there in the song)
G|----|----|----|----|----|----|----|-------|---Bass---|
D|-0~-|----|----|----|-0~-|----|----|-------|-00000000-|
A|----|----|-0~-|----|----|----|-0~-|--0----|-Comes-In-|
E|----|-3~-|----|-3~-|----|-3~-|----|3---3~-|---Here---|

Verse 1 (play twice)
G|--------|-----|------|--------|--------|
D|0000----|-----|------|--------|--------|
A|----0000|222--|------|--------|00000000|
E|--------|----2|-222-3|33333333|--------|

Pre-Chorus
G|-------|-------|-------|-------|--------|--------|--------|--------|
D|-------|-------|-------|-------|--------|--------|00000000|00000000|
A|-------|0-0-0-0|2-2-2-2|-------|--------|00000000|--------|--------|
E|3-3-3-3|-------|-------|3-3-2-2|33333333|--------|--------|--------|

Verse 2
G|--------|-----|------|--------|--------|-One---|--------|----|
D|0000----|-----|------|--------|--------|-More--|--------|----|
A|----0000|222--|------|--------|00000000|-Time!-|--------|-0~-|
E|--------|----2|-222-3|33333333|--------|-------|33333333|----|

Chorus
G|-------|-------|-------|-------|-------|-------|-------|-------|
D|0-0-0-0|-------|-------|-------|0-0-0-0|-------|-------|-------|
A|-------|-------|0-0-0-0|-------|-------|-------|0-0-0-0|-------|
E|-------|3-3-3-3|-------|3-3-3-3|-------|3-3-3-3|-------|3-3-3-3|

G|-------|-------|-------|-------|-------|-------|-------|-------|
D|0-0-0-0|-------|-------|-------|0-0-0-0|-------|-------|-------|
A|-------|-------|0-0-0-0|-------|-------|-------|0-0-0-0|---0---|
E|-------|3-3-3-3|-------|3-3-3-3|-------|3-3-3-3|-------|-3---3~|

Bridge
G|--------|--------|--------|--------|---|------|
D|--------|--------|--------|--------|---|------|
A|--------|0-0-0000|2-2-2222|--------|---|----0~|
E|3-3-3333|--------|--------|33332222|-3~|3-3---|

Solo
G|-------|-------|-------|-------|-------|-------|-------|--------|
D|0-0-0-0|-------|-------|-------|0-0-0-0|-------|-------|--------|
A|-------|-------|0-0-0-0|-------|-------|-------|0-0-0-0|--------|
E|-------|3-3-3-3|-------|3-3-3-3|-------|3-3-3-3|-------|33333333|

Post-Chorus
G|-------|-------|-------|-------|-------|-------|-------|-------|
D|0-0-0-0|-------|-------|-------|0-0-0-0|-------|-------|-------|
A|-------|-------|0-0-0-0|-------|-------|-------|0-0-0-0|---0---|
E|-------|3-3-3-3|-------|3-3-3-3|-------|3-3-3-3|-------|-3---3~|

Outro (optional;it's not there in the song)
G|----|----|----|----|
D|-0~-|----|----|----|
A|----|----|-0~-|----|
E|----|-3~-|----|-3~-|

Order of Song:
Intro (optional)
Verse 1
Pre-Chorus
Verse 2
Chorus
Bridge
Solo
Post-Chorus
Outro (optional)

Thanks for reading my tab! Please rate! :) God Bless!
comments
print report bad tab
4 comments total. Showing first comments.
0 reply
Jcbrown29 wrote on October 28 2014, 10:31 pm

Awesome, Might be a little off, but best one ive seen!

0 reply
JESUSFREA343 wrote on January 13 2015, 09:51 am

Feel free to use a capo--this was derived using extreme music theory and other skills--it's spot-on in other words; thanks for the comment though!

0 reply
Jcbrown29 wrote on January 14 2015, 05:44 pm

Interesting, so if I were to capo it, where would i capo it?

I want to post or [tab]
guest
You may want to rate the tab now too:
select rating
Please do not post tabs as comments. Select "correction" instead!