Oops, an error
Loading. Please wait.

Come Right Out And Say It Tab

version 1
version 1

Whole song

Interactive

11,163 views 6 this week
2 commentsread comments
1 2 3 4 5
excellent!
x 6
add to favorites
launch autoscroll
font size
0
reset
how to read this tab
guitar tuner
Autoscroll
slow
fast
+/-
esc
set tempo
stop
Help us to improve Ultimate-Guitar.com Take our survey!
×
Author
Difficulty
novice
Come Right Out and Say It
Relient K
Five Score and Seven Years Ago

Drop D tuned down half a step.

.... = palmute


Intro and start of verse is piano

VERSE
eb|-----------------------------------------|
Bb|-----------------------------------------|
Gb|-----------------------------------------|
Db|-9999999---7777777---5555555---5555555---|
Ab|-9999999---7777777---5555555---5555555---|
Db|-9999999---7777777---5555555---5555555---|
    .......   .......   .......   .......

CHORUS
eb|---------------------------------------------------------------------|
Bb|---------------------------------------------------------------------|
Gb|---------------------------------------------------------------------|
Db|-0000000000000000-9999999999999999-5555555555555555-7777777777777777-|
Ab|-0000000000000000-9999999999999999-5555555555555555-7777777777777777-|
Db|-0000000000000000-9999999999999999-5555555555555555-7777777777777777-|

eb|---------------------------------------------------------------------|
Bb|---------------------------------------------------------------------|
Gb|---------------------------------------------------------------------|
Db|-0000000000000000-9999999999999999-5555555555555555-7777777777777777-|
Ab|-0000000000000000-9999999999999999-5555555555555555-7777777777777777-|
Db|-0000000000000000-9999999999999999-5555555555555555-7777777777777777-|
                                      ................ ................

VERSE
eb|-----------------------------------------|
Bb|-----------------------------------------|
Gb|-----------------------------------------|
Db|-9999999---7777777---5555555---5-5-555---|
Ab|-9999999---7777777---5555555---5-5-555---|
Db|-9999999---7777777---5555555---5-5-555---|

eb|-----------------------------------5-----5-|
Bb|-------------------------------2-3---2-3---|
Gb|-------------------------------------------|
Db|-9999999---7777777---5555555---------------|
Ab|-9999999---7777777---5555555---------------|
Db|-9999999---7777777---5555555---------------|
                                 ( delay/echo )

eb|-----------------------------------------|
Bb|-----------------------------------------|
Gb|-----------------------------------------|
Db|-9999999---7777777---5555555---5555555---|
Ab|-9999999---7777777---5555555---5555555---|
Db|-9999999---7777777---5555555---5555555---|
    .......   .......   .......   .......

eb|-----------------------------------------|
Bb|-----------------------------------------|
Gb|-----------------------------------------|
Db|-9999999---7777777---5555555---5555555---|
Ab|-9999999---7777777---5555555---5555555---|
Db|-9999999---7777777---5555555---5555555---|
    .......   .......   .......   ..slowly release

CHORUS
eb|---------------------------------------------------------------------|
Bb|---------------------------------------------------------------------|
Gb|---------------------------------------------------------------------|
Db|-0000000000000000-9999999999999999-5555555555555555-7777777777777777-|
Ab|-0000000000000000-9999999999999999-5555555555555555-7777777777777777-|
Db|-0000000000000000-9999999999999999-5555555555555555-7777777777777777-|

eb|---------------------------------------------------------------------|
Bb|---------------------------------------------------------------------|
Gb|---------------------------------------------------------------------|
Db|-0000000000000000-9999999999999999-5555555555555555-7777777777777777-|
Ab|-0000000000000000-9999999999999999-5555555555555555-7777777777777777-|
Db|-0000000000000000-9999999999999999-5555555555555555-7777777777777777-|
                                      ................ ................

SOLO
eb|------------------------------------------------------------------|
Bb|------------------------------------------------------------------|
Gb|------------------------------------------------------------------|
Db|-5-4-----------5-4-5-4-------------5-4-----------5-4-5-4----------|
Ab|-----5-----------------5-------5------5-----------------5-------5-|
Db|-------0-5-7-------------0-5-7----------0-5-7-------------0-5-7---|

eb|------------------------------------------------------------------|
Bb|------------------------------------------------------------------|
Gb|------------------------------------------------------------------|
Db|---4-0-------------4-0-------------4-0-------------4-0------------|
Ab|-2-----0-2-4-5---2-----2-0-4-5---2-----0-2-4-5---2-----2-0-4-5----|
Db|------------------------------------------------------------------|

BRIDGE
eb|--------------------------------------------------------------------------|
Bb|--------------------------------------------------------------------------|
Gb|--------------------------------------------------------------------------|
Db|-2-22-2----0--------99999999-77777777-22222222-00000000-99999999-77777777-|
Ab|-2-22-2----0--------99999999-77777777-22222222-00000000-99999999-77777777-|
Db|-2-22-2----0--------99999999-77777777-22222222-00000000-99999999-77777777-|
                       ........ ........ ........ ........ ........ ........

eb|------------------------------------------------------------------|
Bb|------------------------------------------------------------------|
Gb|------------------------------------------------------------------|
Db|-2-22-2----0--------99999999-77777777-22222222-00000000-99999999--|
Ab|-2-22-2----0--------99999999-77777777-22222222-00000000-99999999--|
Db|-2-22-2----0--------99999999-77777777-22222222-00000000-99999999--|
                       ........ ........ ........ ........ ........

eb|----------------------------------|
Bb|----------------------------------|
Gb|----------------------------------|
Db|-77777777777777777777777777777777-
Ab|-77777777777777777777777777777777-
Db|-77777777777777777777777777777777-
    ..................slowly release

CHORUS (slow) with piano then
CHORUS

eb|---------------------------------------------------------------------|
Bb|---------------------------------------------------------------------|
Gb|---------------------------------------------------------------------|
Db|-0000000000000000-9999999999999999-5555555555555555-7777777777777777-|
Ab|-0000000000000000-9999999999999999-5555555555555555-7777777777777777-|
Db|-0000000000000000-9999999999999999-5555555555555555-7777777777777777-|

eb|---------------------------------------------------------------------|
Bb|---------------------------------------------------------------------|
Gb|---------------------------------------------------------------------|
Db|-9999999999999999-0000000000000000-5555555555555555-7777777777777777-|
Ab|-9999999999999999-0000000000000000-5555555555555555-7777777777777777-|
Db|-9999999999999999-0000000000000000-5555555555555555-7777777777777777-|

eb|---------------------------------------------------------------------|
Bb|---------------------------------------------------------------------|
Gb|---------------------------------------------------------------------|
Db|-9999999999999999-0000000000000000-5555555555555555-77777777---------|
Ab|-9999999999999999-0000000000000000-5555555555555555-77777777---------|
Db|-9999999999999999-0000000000000000-5555555555555555-77777777---------|
                                      ................ ........

Th'end
Suggest correction
What's this?
You can suggest a correction to this tab. Community and Mods will review your correction and vote to approve or reject it.
comments
print report bad tab
2 comments total.
+1 reply
TroyFM 151 wrote on May 28 2007, 04:17 am

Nice tab. Sounds good. Good work on the solo too.

0 reply
xXMCR13Xx 22 wrote on August 5 2009, 08:28 pm

awesome tab. great work, thanks.

guest
You may want to rate the tab now too:
select rating
Please do not post tabs as comments. Select "correction" instead!