Oops, an error
Loading. Please wait.

Crazy Tab

440 views 1 this week
no commentswrite comment
1 2 3 4 5
please rate
add to favorites
launch autoscroll
font size
0
reset
how to read this tab
guitar tuner
Tab Pro tools
  • play this tab
  • loop segment
  • change instrument
  • show fretboard
  • metronome
Autoscroll
slow
fast
+/-
esc
set tempo
stop
Difficulty
novice
-------------------------------------------------------------------------------
                             Crazy - Relient K
-------------------------------------------------------------------------------
Tabbed by: gtbandgeek
E-mail: gtbandgeek@yahoo.com
 This is Relient K's cover of the song Crazy by Gnarls Barkley
Tuning: Standard

Intro

e|----------------|
B|----------------|
G|-5-5-5-5--------|
D|-5-5-5-5--------|
A|-3-3-3-3--------|
E|----------------|
Verse 1- Listen to the song for the rhythm.  Play twice. All Palm Muted.
e|--------------------------|
B|--------------------------|
G|-5------8-----------------|
D|-5------8------6------5---|
A|-3------6------6------5---|
E|----------------4------3--|

Chorus 1. Same as verse 1.



Verse 2. All Palm Muted
e|---------------------------------------------------|
B|---------------------------------------------------|
G|-5-------------8----------------5----8-------------|
D|-5-----6------8--------5-------5----8----6---5-----|
A|-3-----6------6--------5-------3----6----6---5-----|
E|--------4---------------3------------------4----3--|
Chorus 2. Open.
e|---------------------------------------------------------------------------------|
B|---------------------------------------------------------------------------------|
G|-5----8--------------------------------------------------------------------------|
D|-5----8----6----5----------------------------------------------------------------|
A|-3----6----6----5----------------------------------------------------------------|
E|------------4----3---------------------------------------------------------------|
Bridge
e|---------------------------------------------------------------------------------|
B|---------------------------------------------------------------------------------|
G|-5---------8---------------------------------------------------------------------|
D|-5----6----8----5----------------------------------------------------------------|
A|-3----6----6----5----------------------------------------------------------------|
E|-------4----------3--------------------------------------------------------------|
Verse 3. Palm Muted
e|---------------------------------------------------------------------------------|
B|---------------------------------------------------------------------------------|
G|-5----8--------------------------------------------------------------------------|
D|-5----8----6-----5---------------------------------------------------------------|
A|-3----6----6----5----------------------------------------------------------------|
E|------------4----3---------------------------------------------------------------|
Chorus 3. Repeat Verse 3 but not Palm Muted



Ending - Open
e|---------------------------------------------------------------------------------|
B|---------------------------------------------------------------------------------|
G|--5----8-------------------------------------------------------------------------|
D|--5----8-----6---5---------------------------------------------------------------|
A|--3----6-----6---5---------------------------------------------------------------|
E|--------------4----3-------------------------------------------------------------|
 End with
e|---------------------------------------------------------------------------------|
B|---------------------------------------------------------------------------------|
G|---------------------------------------------------------------------------------|
D|--5--5--5--5---------------------------------------------------------------------|
A|--5--5--5--5---------------------------------------------------------------------|
E|--3--3--3--3---------------------------------------------------------------------|


************************************

| /   slide up
| \   slide down
| h   hammer-on
| p   pull-off
| ~   vibrato
| +   harmonic
| x   Mute note
| b   Bend
| pb  Pre-bend
| br  Bend release
| pbr Pre-bend release
| brb Bend release bend

************************************
comments
We did not receive enough feedback on this tab! Please rate:
print report bad tab
1 2 3 4 5
I want to post or [tab]
guest
You may want to rate the tab now too:
select rating
Please do not post tabs as comments. Select "correction" instead!