Oops, an error
Loading. Please wait.

Curl Up And Die Tab

version 1
version 1

Whole song

Interactive

2,560 views 3 this week
no commentswrite comment
1 2 3 4 5
accurate
x 3
add to favorites
launch autoscroll
font size
0
reset
how to read this tab
guitar tuner
Autoscroll
slow
fast
+/-
esc
set tempo
stop
Help us to improve Ultimate-Guitar.com Take our survey!
×
Author
Difficulty
Capo
Tabbers playing skills
novice
1st fret
intermediate ++
-----------------------------------------------------------------------------
                           CURL UP AND DIE                  RELIENT K
-----------------------------------------------------------------------------

Tabbed by:hurricaneherman

Acoustic Guitar 1:Standard Tuning, Capo 1st
Acoustic Guitar 2:Standard Tuning, Capo 1st
Acoustic Guitar 3:Standard Tuning, Capo 1st

Here is the guitar tab for Relient K's song "Curl Up And Die", from their
album The Bird And The Bee Sides.
NOTE:for the capo, when it says open, it will really be the first fret, since
the capo's on the first. And when it says 5th fret, it is actually on that
fret.Also, the lyrics don't line up, so don't use them as exact guidelines.

~INTRO~

 |acoustic 1|
e|----4-----4-4-4-----4-----4-4-4-----4-----4-4-4-----4-----4-4-4-|
B|----0-----0-0-0-----0-----0-0-0-----0-----0-0-0-----0-----0-0-0-|
G|----0-----0-0-0-----0-----0-0-0-----0-----0-0-0-----0-----0-0-0-|
D|3---3-----3-3-3-3---3-----3-3-3-3---3-----3-3-3-3---3-----3-3-3-|
A|3---------------3---------------3---------------3---------------|
E|0---------------0---------------0---------------0---------------|

~VERSE 1~

 |acoustic 1|                                                      
e|----4-----4-4-4-----4-----4-4-4-----4-----4-4-4-----4-----4-4-4-|__
B|----0-----0-0-0-----0-----0-0-0-----0-----0-0-0-----0-----0-0-0-|  |
G|----0-----0-0-0-----0-----0-0-0-----0-----0-0-0-----0-----0-0-0-|  |
D|3---3-----3-3-3-3---3-----3-3-3-0---0-----0-0-0-0---0-----0-0-0-|  |
A|3---------------3---------------3---------------3---------------|  |
E|0---------------0---------------4---------------4---------------|  |
   I don't like the steps I took to get to look into your deepest    |
 I don't like the place I'm in headspace within the hardwood and the |X[2]
 |acoustic 1|                                                        |
e|----4-----4-4-4-----4-----4-4-4-----4-----4-4-4-----4-----4-4-4-|  |
B|----2-----2-2-2-----2-----2-2-2-----0-----0-0-0-----0-----0-0-0-|  |
G|0---0-----0-0-0-0---0-----0-0-0-----0-----0-0-0-----0-----0-0-0-|  |
D|x---------------x---------------0---0-----0-0-0-0---0-----0-0-0-|  |
A|4---------------4---------------3---------------3---------------|__|
E|--------------------------------4---------------4---------------|
                             Feelings
                             Ceiling
 |acoustic 1|
e|----3-----3-3-3-----3-----3-3-3-----4-----4-4-4-----4-----4-4-4-|
B|----5-----5-5-5-----5-----5-5-5-----0-----0-0-0-----0-----0-0-0-|
G|----5-----5-5-5-----5-----5-5-5-----0-----0-0-0-----0-----0-0-0-|
D|5---5-----5-5-5-5---5-----5-5-5-3---3-----3-3-3-3---3-----3-3-3-|
A|3---------------3---------------3---------------3---------------|
E|--------------------------------0---------------0---------------|
              'Cause if I'm restless then why do I
 |acoustic 1|                                                      
e|----4-----4-4-4-----4-----4-4-4-----4-----4-4-4-----4-----4-4-4-|
B|----2-----2-2-2-----2-----2-2-2-----0-----0-0-0-----0-----0-0-0-|
G|0---0-----0-0-0-0---0-----0-0-0-----0-----0-0-0-----0-----0-0-0-|
D|x---------------x---------------0---0-----0-0-0-0---0-----0-0-0-|
A|4---------------4---------------3---------------3---------------|
E|--------------------------------4---------------4---------------|
               I want nothing but to rest my soul
 |acoustic 1|
e|----3-----3-3-3-----3-----3-3-3-----4-----4-4-4-----4-----4-4-4-|
B|----5-----5-5-5-----5-----5-5-5-----0-----0-0-0-----0-----0-0-0-|
G|----5-----5-5-5-----5-----5-5-5-----0-----0-0-0-----0-----0-0-0-|
D|5---5-----5-5-5-5---5-----5-5-5-3---3-----3-3-3-3---3-----3-3-3-|
A|3---------------3---------------3---------------3---------------|
E|--------------------------------0---------------0---------------|
               And I don't get this and I know why
 |acoustic 1|                                                      
e|----4-----4-4-4-----4-----4-4-4-----3-----3-3-3-----3-----3-3-3-|
B|----2-----2-2-2-----2-----2-2-2-----0-----0-0-0-----0-----0-0-0-|
G|0---0-----0-0-0-0---0-----0-0-0-3---3-----3-3-3-3---3-----3-3-3-|
D|x---------------x---------------0---------------0---------------|
A|4---------------4-----------------------------------------------|
E|----------------------------------------------------------------|
        You see sometimes things are just beyond control

~CHORUS 1~

 |acoustic 1|
e|----4-----4-4-4-----4-----4-4-4-----4-----4-4-4-----4-4-----4-4-|
B|----0-----0-0-0-----0-----0-0-0-----0-----0-0-0-----0-0-----0-0-|
G|----0-----0-0-0-----0-----0-0-0-----0-----0-0-0-----0-0-----0-0-|
D|0---0-----0-0-0-0---0-----0-0-0-0---0-----0-0-0-0---0-0-0---0-0-|
A|3---------------3---------------3---------------3-------x-------|
E|4---------------4---------------4---------------4-------3-------|
 |acoustic 2|                                                     |
e|------8-------------------------------8-------------4-------3---|
B|----9-------9-----------------------9-------9-------------------|
G|0---------------------0---------0---------------0---------------|
D|----------------5h6---------0---------------------------5-------|
A|----------------------------------------------------------------|
E|----------------------------------------------------------------|
       But I don't mind but I'm not surprised to find that you
 |acoustic 1|
e|----4-----4-4-4-----4-----4-4-4-----4-----4-4-4-----4-4-----4-4-|
B|----0-----0-0-0-----0-----0-0-0-----0-----0-0-0-----0-0-----0-0-|
G|----0-----0-0-0-----0-----0-0-0-----0-----0-0-0-----0-0-----0-0-|
D|3---3-----3-3-3-3---3-----3-3-3-3---3-----3-3-3-3---3-3-0---0-0-|
A|3---------------3---------------3---------------3-------0-------|
E|0---------------0---------------0---------------0---------------|
 |acoustic 2|                                                     |
e|----0-8-----0-----------------------0-8-----0-------0-8-----3---|
B|----------------------0-----3-----------------------------------|
G|----------------------------------------------------------------|
D|3---------------5h6-------------3---------------3-------0-------|
A|----------------------------------------------------------------|
E|----------------------------------------------------------------|
             Do I'm not surprised to find that you
 |acoustic 1|
e|----4-----4-4-4-----4-----4-4-4-----3-----3-3-3-----3-----3-3-3-|
B|----2-----2-2-2-----2-----2-2-2-----4-----4-4-4-----4-----4-4-4-|
G|0---0-----0-0-0-0---0-----0-0-0-3---3-----3-3-3-3---3-----3-3-3-|
D|x---------------x---------------0---------------0---------------|
A|4---------------4-----------------------------------------------|
E|----------------------------------------------------------------|
 |acoustic 2|                                                     |
e|----------------------------------------------------------------|
B|----------------------------------------------------------------|
G|------------------------8-------3-------------------------------|
D|3-------5-------6-----------------------------------------------|
A|----------------------------------------------------------------|
E|----------------------------------------------------------------|
                         Do I know you do
 |acoustic 1|
e|----4-----4-4-4-----4-----4-4-4-----4-----4-4-4-----4-4-----4-4-|
B|----0-----0-0-0-----0-----0-0-0-----0-----0-0-0-----0-0-----0-0-|
G|----0-----0-0-0-----0-----0-0-0-----0-----0-0-0-----0-0-----0-0-|
D|0---0-----0-0-0-0---0-----0-0-0-0---0-----0-0-0-0---0-0-0---0-0-|
A|3---------------3---------------3---------------3-------x-------|
E|4---------------4---------------4---------------4-------3-------|
 |acoustic 2|                                                     |
e|------8-------------------------------8-------------4-------3---|
B|----9-------9-----------------------9-------9-------------------|
G|0---------------------0---------0---------------0---------------|
D|----------------5h6---------0---------------------------5-------|
A|----------------------------------------------------------------|
E|----------------------------------------------------------------|
       And I feel fine but I know the same does not apply to
 |acoustic 1|
e|----4-----4-4-4-----4-----4-4-4-----4-----4-4-4-----4-4-----4-4-|
B|----0-----0-0-0-----0-----0-0-0-----0-----0-0-0-----0-0-----0-0-|
G|----0-----0-0-0-----0-----0-0-0-----0-----0-0-0-----0-0-----0-0-|
D|3---3-----3-3-3-3---3-----3-3-3-3---3-----3-3-3-3---3-3-0---0-0-|
A|3---------------3---------------3---------------3-------0-------|
E|0---------------0---------------0---------------0---------------|
 |acoustic 2|                                                     |
e|----0-8-----0-----------------------0-8-----0-------0-8-----3---|
B|----------------------0-----3-----------------------------------|
G|----------------------------------------------------------------|
D|3---------------5h6-------------3---------------3-------0-------|
A|----------------------------------------------------------------|
E|----------------------------------------------------------------|
            You I know the same does not apply to
 |acoustic 1|
e|----4-----4-4-4-----4-----4-4-4-4-------------------------------|
B|----2-----2-2-2-----2-----2-2-2-5-------------------------------|
G|0---0-----0-0-0-0---0-----0-0-0-0-------------------------------|
D|x---------------x---------------x-------------------------------|
A|4---------------4---------------4-------------------------------|
E|----------------------------------------------------------------|
 |acoustic 2|                                                     |
e|----------------------------------------------------------------|
B|----------------------------------------------------------------|
G|------------------------8-------5-------------------------------|
D|3-------5-------6-----------------------------------------------|
A|----------------------------------------------------------------|
E|----------------------------------------------------------------|
           You so I guess that I'll curl up and die too
~INTERLUDE 1~

Play intro riff.

~VERSE 2~

Repeat verse 1, with these lyrics.

Clinging to the remnants of perfection like most do after they brake it,
Not knowing which direction's the correct one do I discard or remake it,
'Cause if I don't know than I don't know,
But I may know someone who knows me more than I,
And if I could somehow rest this soul,
Maybe control could find it's way back to my life

~CHORUS 2~

Guitars 1, and 2 repeat, and guitar 3 comes in with this half way through
the chorus.
NOTE:in the song, this guitar part is actually a cello, or something like
that, but I tabbed it out for guitar.

 |acoustic 3|
e|----------------------------------------------------------------|
B|----------------------------------------------------------------|
G|----8-------5-------3-------0-------8-------5-------3-------0---|
D|----------------------------------------------------------------|
A|----------------------------------------------------------------|
E|----------------------------------------------------------------|
       And I feel fine but I know the same does not apply to
 |acoustic 3|
e|----------------------------------------------------------------|
B|----------------------------------------------------------------|
G|3---8-------5-------3---------------8-------5-------3-----------|
D|----------------------------3-------------------------------3---|
A|----------------------------------------------------------------|
E|----------------------------------------------------------------|
            You I know the same does not apply to
 |acoustic 3|
e|----------------------------------------------------------------|
B|----------------------------------------------------------------|
G|0---8-------5-------3-------0-----------------------------------|
D|------------------------------0-2-------------------------------|
A|----------------------------------------------------------------|
E|----------------------------------------------------------------|
          You so I guess that I'll curl up and die too

~INTERLUDE 2~

 |acoustic 1|
e|----4-----4-4-4-----4-----4-4-4-----4-----4-4-4-----4-----4-4-4-|
B|----2-----2-2-2-----2-----2-2-2-----2-----2-2-2-----2-----2-2-2-|
G|0---0-----0-0-0-0---0-----0-0-0-0---0-----0-0-0-0---0-----0-0-0-|
D|x---------------x---------------x---------------x---------------|
A|4---------------4---------------4---------------4---------------|
E|----------------------------------------------------------------|

 |acoustic 1|
e|----4-----4-4-4-----4-----4-4-4-----4-----4-4-4-----4-----4-4-4-|
B|----0-----0-0-0-----0-----0-0-0-----0-----0-0-0-----0-----0-0-0-|
G|----0-----0-0-0-----0-----0-0-0-----0-----0-0-0-----0-----0-0-0-|
D|3---3-----3-3-3-3---3-----3-3-3-0---0-----0-0-0-0---0-----0-0-0-|
A|3---------------3---------------3---------------3---------------|
E|0---------------0---------------4---------------4---------------|

~BRIDGE~

 |acoustic 1|
e|----4-----4-4-4-----4-----4-4-4-----4-----4-4-4-----4-----4-4-4-|__
B|----2-----2-2-2-----2-----2-2-2-----2-----2-2-2-----2-----2-2-2-|  |
G|0---0-----0-0-0-0---0-----0-0-0-0---0-----0-0-0-0---0-----0-0-0-|  |
D|x---------------x---------------x---------------x---------------|  |
A|4---------------4---------------4---------------4---------------|  |
E|----------------------------------------------------------------|  |
              Yeah I'll curl up with you until I die                 |X[4]
 |acoustic 1|                                                        |
e|----4-----4-4-4-----4-----4-4-4-----4-----4-4-4-----4-----4-4-4-|  |
B|----0-----0-0-0-----0-----0-0-0-----0-----0-0-0-----0-----0-0-0-|  |
G|----0-----0-0-0-----0-----0-0-0-----0-----0-0-0-----0-----0-0-0-|  |
D|3---3-----3-3-3-3---3-----3-3-3-0---0-----0-0-0-0---0-----0-0-0-|  |
A|3---------------3---------------3---------------3---------------|__|
E|0---------------0---------------4---------------4---------------|
                             With you
 |acoustic 1|
e|----4-----4-4-4-----4-----4-4-4-3-------------------------------|
B|----2-----2-2-2-----2-----2-2-2-4-------------------------------|
G|0---0-----0-0-0-0---0-----0-0-0-3-------------------------------|
D|x---------------x---------------0-------------------------------|
A|4---------------4-----------------------------------------------|
E|----------------------------------------------------------------|
            I'll curl up with you 'till I die with you
~OUTRO~

 |acoustic 1|
e|----4-----4-4-4-----4-----4-4-4-----4-----4-4-4-----------------|
B|----0-----0-0-0-----0-----0-0-0-----0-----0-0-0-----------------|
G|----0-----0-0-0-----0-----0-0-0-----0-----0-0-0-----------------|
D|3---3-----3-3-3-3---3-----3-3-3-3---3-----3-3-3-3---------------|
A|3---------------3---------------3---------------3---------------|
E|0---------------0---------------0---------------0---------------|

=============================================================================
I hope you enjoyed this tab and that it was easy to follow.

Peace, Love, I'm out.
Suggest correction
Give kudos to tab author, rate the tab!
1 2 3 4 5
comments
print report bad tab
guest
You may want to rate the tab now too:
select rating
Please do not post tabs as comments. Select "correction" instead!