Oops, an error
Loading. Please wait.

Deathbed Tab

version 3
version 3

Intro

Interactive

1,692 views 1 this week
1 commentread comment
1 2 3 4 5
2 more votes to show rating
add to favorites
launch autoscroll
font size
0
reset
how to read this tab
guitar tuner
×
Best way to learn
"Deathbed"
Autoscroll
slow
fast
+/-
esc
set tempo
stop
Difficulty
intermediate
ok this is the part right at the begining where he starts playing the piano.  Ive 
transscribed everything from piano to guitar.  it is 100000000000000% right i am positive.  If 
think its wrong well then......ur stupid.

" I can smell the death on the sheets...."
E------------------------------------------------------------------------|
B---17-15-13-------15-17-----15-17-------15-17---17-15-13-------13-12----|
G-----------12--14------14-14------14-14-------14----------12-12---------|
D------------------------------------------------------------------------|
A------------------------------------------------------------------------|
E------------------------------------------------------------------------|X2

"but this is my death bed..."
E---------------------------------------15-15-12------------------------|
B-----13---13-13-10-10-15-13-15-17--------------15-13-13-15-13-12-13----|
G--12---12-------------------------12-12--------------------------------|
D-----------------------------------------------------------------------|
A-----------------------------------------------------------------------|
E-----------------------------------------------------------------------|X1
Suggest correction
Give kudos to tab author, rate the tab!
1 2 3 4 5
comments
print report bad tab
1 comment total.
0 reply
Tony Bazzo 10 Dec 15, 2009 12:31 PM

Well............I guess I'm stupid

guest
You may want to rate the tab now too:
select rating
Wanna post a correction for this tab? Suggest correction