Oops, an error
Loading. Please wait.

Devastation And Reform Bass Tab

version 1
version 1

Whole song

Interactive

4,336 views 1 this week
2 commentsread comments
1 2 3 4 5
x 6
add to favorites
launch autoscroll
font size
0
reset
guitar tuner
Autoscroll
slow
fast
+/-
esc
set tempo
stop
Help us to improve Ultimate-Guitar.com Take our survey!
×
Author
Difficulty
Tuning
intermediate
C# G# C# F# A# D#
-------------------------------------------------------------------
DEVASTATION AND REFORM – RELIENT K – FIVE SCORE AND SEVEN YEARS AGO
-------------------------------------------------------------------

Tabbed By: kstar19
E-mail: gophered@hotmail.com

Tuning: drop C#

>  Repeated note(I’m sure you can figure out the # of times)
~  Let ring

Intro
G  |-----------------------------------|
D  |-----------------------------------|
A  |---4-------------------------4-----|
C# |57---57-0--0>--7>--5>--0>--57---75-|

Verse 1
G  |----------1----------------1-----------------------|
D  |--2-4-2-4---4-2----2-4-2-4---4-2------------4------|
A  |4----------------4------------------6-7-6-7---76-4-|
C# |----------------------------------7----------------|

Pre-Chorus
G  |---------------------------------|
D  |---------------------------------|
A  |0~-4~----4~--000--444-0>--2>--3>-|
C# |------7~-------------------------|

Chorus
G  |-------------------------------|
D  |-------------------------------|
A  |0>------4>--2>--0>----------0>-|
C# |----3>--------------3>--5>-----|

After-Chorus
G  |-----------------------|
D  |-----------------------|
A  |4>----------------4----|
C# |----7>--5>--0--57---75-|

Verse 2
G  |----------1----------------1------------------------6>-|
D  |--2-4-2-4---4-2----2-4-2-4---4-2------------4----------|
A  |4----------------4------------------6-7-6-7---76-4-----|
C# |----------------------------------7--------------------|

Pre-Chorus
G  |---------------------------------|
D  |---------------------------------|
A  |0~-4~----4~--000--444-0>--2>--3>-|
C# |------7~-------------------------|

Chorus
G  |-------------------------------|
D  |-------------------------------|
A  |0>------4>--2>--0>----------0>-|
C# |----3>--------------3>--5>-----|


Soft Singing Thing
G  |-------------------------------------------------------|
D  |-------------------------------------------------------|
A  |------------2~--------------2~-----rest for a little---|
C# |5~--3~--0~------5~--3~--0~-----------------------------|

Build Up
G  |--------------------------------|
D  |--------------------------------|
A  |-rest a little—---------0>--4---|
C# |----------------5>--7>--------7-|

Chorus
G  |-------------------------------|
D  |-------------------------------|
A  |0>------4>--2>--0>----------0>-|
C# |----3>--------------3>--5>-----|

Ending
G  |------------------------|
D  |------------------------|
A  |4>----------44-4444-444-|
C# |----7>--5>--------------|


Cool song.  Just figure out the # of notes and the timings and you'll be good to go. Enjoy.
Suggest correction
comments
print report bad tab
2 comments total.
0 reply
thunderhawk 535 Apr 27, 2010 09:40 PM

drop C#? really? no way. its defiantly in standard.

0 reply
pnkhrdwndr 41 Jun 19, 2010 12:21 AM

If you're going to tune it to drop c# make the whole tab that way Srs

guest
You may want to rate the tab now too:
select rating
Wanna post a correction for this tab? Suggest correction