Oops, an error
Loading. Please wait.

Devastation And Reform Tab

version 2
version 2

Whole song

Interactive

3,176 views 1 this week
8 commentsread comments
1 2 3 4 5
accurate
x 5
add to favorites
launch autoscroll
font size
0
reset
how to read this tab
guitar tuner
Tab Pro tools
  • play this tab
  • loop segment
  • change instrument
  • show fretboard
  • metronome
×
Best way to learn
"Devastation And Reform"
Autoscroll
slow
fast
+/-
esc
set tempo
stop
Contributor
Difficulty
Tuning
intermediate
E A D G B E
Intro:
Lead Guitar [x2]
Eb|---------------------------------------------------------------------|
Ab|------------65-------------------------------------------------------|
Db|----57---57----7------57----57---57----------------------------------| 
Gb|-00---00----------77-----77----7----5-5555555555557770000000000000000|
Bb|---------------------------------------------------------------------|
Eb|---------------------------------------------------------------------|

Rhythm Guitar (On Second Time)
|-----------------------|
|-----------------------|
|-7-----------------7---| 
|-7 x8--7-----5-----7 x8|
|-5-----7 x8--5 x8--5---|
|-------5-----3---------| 

Verse 1: (Slight Distortion)
|--5--5--5--555--5--5--5--555--3--3--3--333--5--------------|
|--6--6--6--666--6--6--6--666--5--5--5--555--6--------------|
|--7--7--7--777--7--7--7--777--5--5--5--555--7--------------| 
|--7--7--7--777--7--7--7--777--5--5--5--555--7--------------|
|--5--5--5--555--5--5--5--555--3--3--3--333--5--------------|
|-----------------------------------------------------------|

|-------12------------------5------------| 
|-----6-------------------------------65-|
|---7------------7--------7---------7----| let ring
|-8---------------------7---------7------|
|-------------5-------5------------------|
|----------------------------------------| 

Pre-Chorus:
|---------------xxxxxxxx------------------|
|---------------xxxxxxxx------------------|
|3-33-----7-77--xxxxxxxx------------------| 
|3-33-----7-77--xxxxxxxx--8---/10---/11---|
|1-11-----5-55--xxxxxxxx--8 x8/10 x8/11 x8|
|---------------xxxxxxxx--6---/8----/9----| 
Chorus:
Gtr. 1:
|-------------------------------------------------|
|-------------------------------------------------|
|-7-----9999--10101010--10-----12121212--14141414-| 
|-x x8--xxxx---x-x-x-x---x x8---x-x-x-x---x-x-x-x-|
|-5-----7777---8-8-8-8---8-----10101010--12121212-|
|-------------------------------------------------|

|------------------------------------| 
|------------------------------------|
|-14-----12-----9-----10101010--9999-|
|--x x8---x x8--x x8---x-x-x-x--xxxx-| 
|-12-----10-----7------8-8-8-8--7777-| 
|------------------------------------|

|-----------------------------------------------|
|-----------------------------------------------|
|7-----9999--10101010--10-----12121212--14141414| 
|x x8--xxxx---x-x-x-x---x x8---x-x-x-x---x-x-x-x|
|5-----7777---8-8-8-8---8-----10101010--12121212|
|-----------------------------------------------|

|---------------| 
|---------------|
|-12------7-----|
|--x x16--x x16-|
|-10------5-----| 
|---------------|

Gtr. 2:
|-------------------------------------------------|
|-------------------------------------------------|
|-3-----------7-----5-----3-----------------------| 
|-3 x8--3-----7 x8--5 x8--3 x8--3------5-----8----| 
|-1-----3 x8--5-----3-----1-----3 x 8--5 x8--8 x8-|
|-------1-----------------------1------3-----6----| 

Interlude:
Gtr. 1
|---------------------------------------------------------------------|
|------------65-------------------------------------------------------|
|----57---57----7------57----57---57----------------------------------| 
|-00---00----------77-----77----7----5-5555555555557770000000000000000|
|---------------------------------------------------------------------|
|---------------------------------------------------------------------|

Gtr.2 
|---------------------------------------------------------------------|
|---------------------------------------------------------------------|
|-----------------------------------------------------7777777777777777| 
|-----------------------------------------------------7777777777777777|
|-----------------------------------------------------5555555555555555|
|---------------------------------------------------------------------|

Verse 2:
|------------------------|
|------------------------|
|--------------5 x8------| 
|8 x8--------------------|
|-------5 x8--------5 x8-|
|------------------------|

|-----------------------------------------|
|-----------------------------------------|
|-----7---------7----------------7----7---|
|---7---------7--------7----7----7----7---| 
|-5---------5----------7----7----5----5---|
|----------------------5----5-------------|

Pre-Chorus 2:
|-----------------xxxxxxxx------------------|
|-----------------xxxxxxxx------------------|
|3-3/14-----7-77--xxxxxxxx------------------| 
|3-3/x------7-77--xxxxxxxx--8---/10---/12---|
|1-1/12-----5-55--xxxxxxxx--8 x8/10 x8/12 x8|
|-----------------xxxxxxxx--6---/8----/10---|
 
Chorus 2:
Gtr. 1:
|-------------------------------------------------|
|-------------------------------------------------|
|-7-----9999--10101010--10-----12121212--14141414-| 
|-x x8--xxxx---x-x-x-x---x x8---x-x-x-x---x-x-x-x-|
|-5-----7777---8-8-8-8---8-----10101010--12121212-|
|-------------------------------------------------|

|------------------------------------| 
|------------------------------------|
|-14-----12-----9-----10101010--9999-|
|--x x8---x x8--x x8---x-x-x-x--xxxx-| 
|-12-----10-----7------8-8-8-8--7777-| 
|------------------------------------|

|-----------------------------------------------|
|-----------------------------------------------|
|7-----9999--10101010--10-----12121212--14141414| 
|x x8--xxxx---x-x-x-x---x x8---x-x-x-x---x-x-x-x|
|5-----7777---8-8-8-8---8-----10101010--12121212|
|-----------------------------------------------|

|---------------| 
|---------------|
|-12------7-----|
|--x x16--x x16-|
|-10------5-----| 
|---------------|

Gtr. 2:
|-------------------------------------------------|
|-------------------------------------------------|
|-3-----------7-----5-----3-----------------------| 
|-3 x8--3-----7 x8--5 x8--3 x8--3------5-----8----| 
|-1-----3 x8--5-----3-----1-----3 x 8--5 x8--8 x8-|
|-------1-----------------------1------3-----6----| 

Interlude: No guitar first part until, "A shell of what I had when..."
|----------------------------------------|
|----------------------------------------| 
|-3-----5---------------------------7----|
|-3 x8--5 x8--5-----7-----88888888--7--7-|
|-1-----3-----5 x8--7 x8--88888888--5--7-|
|-------------3-----5-----66666666-----5-|
PM**********

Chorus 3:
Gtr. 1:
|-------------------------------------------------|
|-------------------------------------------------|
|-7-----9999--10101010--10-----12121212--14141414-| 
|-x x8--xxxx---x-x-x-x---x x8---x-x-x-x---x-x-x-x-|
|-5-----7777---8-8-8-8---8-----10101010--12121212-|
|-------------------------------------------------|

|------------------------------------| 
|------------------------------------|
|-14-----12-----9-----10101010--9999-|
|--x x8---x x8--x x8---x-x-x-x--xxxx-| 
|-12-----10-----7------8-8-8-8--7777-| 
|------------------------------------|

|-----------------------------------------------|
|-----------------------------------------------|
|7-----9999--10101010--10-----12121212--14141414| 
|x x8--xxxx---x-x-x-x---x x8---x-x-x-x---x-x-x-x|
|5-----7777---8-8-8-8---8-----10101010--12121212|
|-----------------------------------------------|

|---------------| 
|---------------|
|-12------7-----|
|--x x16--x x16-|
|-10------5-----| 
|---------------|

Gtr. 2:
|-------------------------------------------------|
|-------------------------------------------------|
|-3-----------7-----5-----3-----------------------| 
|-3 x8--3-----7 x8--5 x8--3 x8--3------5-----8----| 
|-1-----3 x8--5-----3-----1-----3 x 8--5 x8--8 x8-|
|-------1-----------------------1------3-----6----| 

Outro:
Gtr. 1
|-------------------------------------------------------55-5-5-55-5-5-5-|
|--------------6-5--------------------------------------66-6-6-66-6-6-6-| 
|---5-7----5-7----7---5-7---5-7---5-7-------------------77-7-7-77-7-7-7-|
|00----00----------77----77-----7----5-555555555555777--77-7-7-77-7-7-7-|
|-------------------------------------------------------55-5-5-55-5-5-5-| 
|-----------------------------------------------------------------------|

Gtr. 2
|-------------------------------------------------------55-5-5-55-5-5-5-|
|-------------------------------------------------------66-6-6-66-6-6-6-| 
|7777777777777777---------------------------------------77-7-7-77-7-7-7-|
|7777777777777777--7777777777777777--5555555555555555---77-7-7-77-7-7-7-|
|5555555555555555--7777777777777777--5555555555555555---55-5-5-55-5-5-5-| 
|------------------5555555555555555--3333333333333333-------------------|

Lyrics:
Fear can drive stick
And it's taking me down this road
A road down which
I swore I'd never go                           Verse 1 
And here I sit
Thinking of God knows what
Afraid to admit
I might self-destruct

So lock the windows
And bolt the door
Cuz I've got enough problems                   Pre-Chorus 1
Without creating more 

I feel like I was born
To devastation and reform
Destroying everything I loved
And the worst part is                           Chorus 1
I pull my heart out, reconstruct
And in the end it's nothing but 
A shell of what I had when I first started

Usually I'll cause my own first hit
It seems to me to be slightly masochistic
But there'd be no story
Without all this descension                     Verse 2 
So I inflict the conflict
With the utmost of intention

So lock the windows
And bolt the door
Cuz I've got enough problems                    Pre-Chorus 2
Without creating more

I feel like I was born 
To devastation and reform
Destroying everything I loved
And the worst part is                            Chorus 2
I pull my heart out, reconstruct
And in the end it's nothing but
A shell of what I had when I first started 

Thank you God
For giving me the insight
So I might make
These wrongs right
If and when
There ever is a next time
Cuz failure is a blessing in disguise            Interlude
Pull my heart out, reconstruct
And in the end it's nothing but
A shell of what I had when I first started
A shell of what I had when I first started

I feel like I was born
To devastation and reform 
Destroying everything I loved
And the worst part is                            Chorus 3
I pull my heart out, reconstruct
And in the end it's nothing but
A shell of what I had when I first started

When I first started
A shell of what I had when I first started       Outro

This is only my first tab but I think its right on.  Enjoy!
comments
print report bad tab
8 comments total. Showing first comments.
0 reply
aceguitarock wrote on June 18 2007, 12:30 am

Your kidding. Ok, I don't even want you to play dumb here, you know this is my tab only you tabbed it as the tuning a half step down and moved all my notes one step higher. And instead of writing out some notes, you just put x8 next to them. THIS ISNT YOUR WORK. I demand an explanation.

0 reply
michael d. wrote on June 18 2007, 04:27 pm

first of all i tabbed this out myself then i looked i didn't even see yours. And they aren't the same. plus look at all the different versions of some songs.

0 reply
aceguitarock wrote on June 18 2007, 06:09 pm

ok, um, your LIEING! take a look at verse 1, the second prechorus, and how you ended it. I know you look off mine, just admit it and I'll let it go.

I want to post or [tab]
guest
You may want to rate the tab now too:
select rating
Please do not post tabs as comments. Select "correction" instead!