Oops, an error
Loading. Please wait.

Down In Flames Bass Tab

version 2
version 2

Whole song

927 views 1 this week
1 commentread comment
1 2 3 4 5
excellent!
x 7
add to favorites
launch autoscroll
font size
0
reset
guitar tuner
Autoscroll
slow
fast
+/-
esc
set tempo
stop
Help us to improve Ultimate-Guitar.com Take our survey!
×
Author
Hey, another tab from your favorite bassist, just kidding. Anyway this is an awesome song
from relient k so enjoy. For any questions or comments e-mail me at soccerdude12@tds.net.
So here it is!

Song: Down In Flames
Album: The Anotomy of the Tongue In Cheek
Artist: Relient k

Intro   0:06                        0:12
      
G---------------]     G-----------------------------------]
D----111----111-]     D-111-11----------------444-4-------]
A--------222----]     A--------111-11--222-22-------444-4-]
E-222-----------]     E-----------------------------------]


Verse 1    0:23  "Christians, were all afraid of....."

G-------------------------------------------]
D-11111111-----------------44444444---------]
A---------11111111-22222222--------44444444-]  Repeat
E-------------------------------------------]

Pre-chorus 0:35 "Were canibles, we watch..."
          
G-----------------------------]  
D-----------------------------]  
A-22-2222--44-4444---------3~-]
E------------------22-2222----]


 0:41 "Finally fell asleep, on the..."

G------------------------------------]
D------------------------------------]
A-22222222-44444444-5555555555555555-]
E------------------------------------]

Chorus 0:46 "Going down in..."

G---------------------------]
D---------------------------]
A-22------------22----------]
E---222222222222--222222222-]

0:53 "Were going down down down..."

G--------------------------------------------------------------------]
D-1111111111111111---------------------------------------------------]
A------------------2222222222222222-----------------1111111111111111-]
E-----------------------------------2222222222222222-----------------]

1:04 "We see the problem...."

G-----------------------------------------------------]
D---------------------------------11111111------------]
A-2222222222222222------------------------44444444-3~-]
E-----------------2222222222222222--------------------]

Bridge

G---------------------]
D---------------------] repeat a few times
A-----4-44--2-22--6-4-]
E-2-22----------------]

Outro

G---------------------------------------------------------------]
D---------------------------------------------------------------] repeat
A-66-6666-55-5555-44-4444-33-3333-22-2222-------22-2222-44-4444-]  4x
E----------------------------------------22-2222----------------]

Thats it! Please rate*****
Suggest correction
What's this?
You can suggest a correction to this tab. Community and Mods will review your correction and vote to approve or reject it.
comments
print report bad tab
1 comment total.
0 reply
bassman09 212 wrote on May 11 2005, 12:00 am

This is a correction of my own tab.

The verse is actually:

G------------------------------------]
D-111-11----------------444-4--333-3-]
A--------111-11--222-22--------------]
E------------------------------------]

And the ending is:

G-----------------------------------------------------------------------]
D-----------------------------------------------------------------------]
A-66-6666--55-5555--44-4444--33-3333--22-2222---------22-2222-44-5555-6-]
E---------------------------------------------22-2222-------------------]

Thats it, sorry for the mess up. -Bassman09

guest
You may want to rate the tab now too:
select rating
Please do not post tabs as comments. Select "correction" instead!