Oops, an error
Loading. Please wait.

Failure To Excommunicate Tab

version 2
version 2

Whole song

Interactive

1,340 views 1 this week
2 commentsread comments
1 2 3 4 5
accurate
x 7
add to favorites
launch autoscroll
font size
0
reset
how to read this tab
guitar tuner
Autoscroll
slow
fast
+/-
esc
set tempo
stop
Help us to improve Ultimate-Guitar.com Take our survey!
×
Author
This is a revised version of Vyper77's TAB. There were inly a few mistakes
 in theirs, I just went through and TABbed the rest of the song. I suggest 
 listening to the song to get the right tempo and strum patterns. E-mail me
 at KittyKQuail@aol.com with any questions or comments. Enjoy!!

Intro:
E-10-10-10-10-10h9-9-9-9-9h12-12-12-12-12h10-10-10-11-10-10--------------
B------------------------------------------------------------------------
G------------------------------------------------------------------------
D------------------------------------------------------------------------
A------------------------------------------------------------------------
E------------------------------------------------------------------------

	(Play 2x's)

E-10-10-10-10--9-9-9-9--12-12-1212-11-11-11-11---------------------------
B------------------------------------------------------------------------
G------------------------------------------------------------------------
D------------------------------------------------------------------------
A------------------------------------------------------------------------
E------------------------------------------------------------------------

Verse 1:

	Bm			G
E-------2-----------------------3----------------------------------------
B-------0-----------------------0----------------------------------------
G-------2-----------------------0----------------------------------------
D-------0-----------------------0----------------------------------------
A-------2-----------------------2----------------------------------------
E-------0-----------------------3----------------------------------------
	 It's the principle   	 It's the issue

	D		      A
E-------2---------------------0------------------------------------------
B-------3---------------------2------------------------------------------
G-------2---------------------2------------------------------------------
D-------0---------------------2------------------------------------------
A-------x---------------------0------------------------------------------
E-------x---------------------0------------------------------------------
	 That your principle   will dismiss you

	Bm			G
E-------2-----------------------3----------------------------------------
B-------0-----------------------0----------------------------------------
G-------2-----------------------0----------------------------------------
D-------0-----------------------0----------------------------------------
A-------2-----------------------2----------------------------------------
E-------0-----------------------3----------------------------------------
	 Because you don't fit into that all-American box

	D		A
E-------2---------------0------------------------------------------------
B-------3---------------2------------------------------------------------
G-------2---------------2------------------------------------------------
D-------0---------------2------------------------------------------------
A-------x---------------0------------------------------------------------
E-------x---------------0------------------------------------------------
	 That coffin created for created thought

Chorus:

	G			A
E-------3-----------------------0----------------------------------------
B-------0-----------------------2----------------------------------------
G-------0-----------------------2----------------------------------------
D-------0-----------------------2----------------------------------------
A-------2-----------------------0----------------------------------------
E-------3-----------------------0----------------------------------------
	 It's disgusting	 His priority

	Bm		     D		A	G
E-------2--------------------2----------0-------3------------------------
B-------0--------------------3----------2-------0------------------------
G-------2--------------------2----------2-------0------------------------
D-------0--------------------0----------2-------0------------------------
A-------2--------------------x----------0-------2------------------------
E-------0--------------------x----------0-------3------------------------
	 How we're entrusting him with authority

	G		  A				D
E-------3-----------------0-----------------------------2----------------
B-------0-----------------2-----------------------------3----------------
G-------0-----------------2-----------------------------2----------------
D-------0-----------------2-----------------------------0----------------
A-------2-----------------0-----------------------------x----------------
E-------3-----------------0-----------------------------x----------------
	 The gavel's gone down before he looked in your heart

			  Bm	   A     	       G 	A
E-------------------------2--------0-------------------3--------0--------
B-------------------------0--------2-------------------0--------2--------
G-------------------------2--------2-------------------0--------2--------
D-------------------------0--------2-------------------0--------2--------
A-------------------------2--------0-------------------2--------0--------
E-------------------------0--------0-------------------3--------0--------
	He finished this racism before he reached the start

(Slow and Soft)
	D 		 A	     G
E-------2----------------0-----------3-----------------------------------
B-------3----------------2-----------0-----------------------------------
G-------2----------------2-----------0-----------------------------------
D-------0----------------2-----------0-----------------------------------
A-------x----------------0-----------2-----------------------------------
E-------x----------------0-----------3-----------------------------------
	 Jesus loves the outcasts. He loves the ones 

	    A			   D  D			   A
E-----------0----------------------2--2--------------------0-------------
B-----------2----------------------3--3--------------------2-------------
G-----------2----------------------2--2--------------------2-------------
D-----------2----------------------0--0--------------------2-------------
A-----------0----------------------x--x--------------------0-------------
E-----------0----------------------x--x--------------------0-------------
	The world just loves to hate. As long as there's a heaven

		       G	  A	   D
E----------------------3----------0--------2-----------------------------
B----------------------0----------2--------3-----------------------------
G----------------------0----------2--------2-----------------------------
D----------------------0----------2--------0-----------------------------
A----------------------2----------0--------x-----------------------------
E----------------------3----------0--------x-----------------------------
	There'll be a failure to excommunicate.  (End slow)

Interlude:

E-10-10-10-10-10h9-9-9-9-9h12-12-12-12-12h10-10-10-11-10-10--------------
B------------------------------------------------------------------------
G------------------------------------------------------------------------
D------------------------------------------------------------------------
A------------------------------------------------------------------------
E------------------------------------------------------------------------

(Play 3x's)

E-10-10-10-10--9-9-9-9--12-12-1212-11-11-11-11---------------------------
B------------------------------------------------------------------------
G------------------------------------------------------------------------
D------------------------------------------------------------------------
A------------------------------------------------------------------------
E------------------------------------------------------------------------

Verse 2:

	Bm			   G
E-------2--------------------------3-------------------------------------
B-------0--------------------------0-------------------------------------
G-------2--------------------------0-------------------------------------
D-------0--------------------------0-------------------------------------
A-------2--------------------------2-------------------------------------
E-------0--------------------------3-------------------------------------
	 The world just keeps you   at an arm's length

	D		      A
E-------2---------------------0------------------------------------------
B-------3---------------------2------------------------------------------
G-------2---------------------2------------------------------------------
D-------0---------------------2------------------------------------------
A-------x---------------------0------------------------------------------
E-------x---------------------0------------------------------------------
	 Every week you        work up the strength

	Bm			      G
E-------2-----------------------------3----------------------------------
B-------0-----------------------------0----------------------------------
G-------2-----------------------------0----------------------------------
D-------0-----------------------------0----------------------------------
A-------2-----------------------------2----------------------------------
E-------0-----------------------------3----------------------------------
	 To fight the flames that are hurled let your faith shine right

	D		          A
E-------2-------------------------0------------------------------------------------
B-------3-------------------------2------------------------------------------------
G-------2-------------------------2------------------------------------------------
D-------0-------------------------2------------------------------------------------
A-------x-------------------------0------------------------------------------------
E-------x-------------------------0------------------------------------------------
	 Through You know it's the world verses Jesus and you

Chorus:

G			A
E-------3-----------------------0----------------------------------------
B-------0-----------------------2----------------------------------------
G-------0-----------------------2----------------------------------------
D-------0-----------------------2----------------------------------------
A-------2-----------------------0----------------------------------------
E-------3-----------------------0----------------------------------------
	 It's disgusting	 His priority

	Bm		     D		A	G
E-------2--------------------2----------0-------3------------------------
B-------0--------------------3----------2-------0------------------------
G-------2--------------------2----------2-------0------------------------
D-------0--------------------0----------2-------0------------------------
A-------2--------------------x----------0-------2------------------------
E-------0--------------------x----------0-------3------------------------
	 How we're entrusting him with authority

	G		  A				D
E-------3-----------------0-----------------------------2----------------
B-------0-----------------2-----------------------------3----------------
G-------0-----------------2-----------------------------2----------------
D-------0-----------------2-----------------------------0----------------
A-------2-----------------0-----------------------------x----------------
E-------3-----------------0-----------------------------x----------------
	 The gavel's gone down before he looked in your heart

			  Bm	   A     	       G 	A   Bm
E-------------------------2--------0-------------------3--------0---2----
B-------------------------0--------2-------------------0--------2---0----
G-------------------------2--------2-------------------0--------2---2----
D-------------------------0--------2-------------------0--------2---0----
A-------------------------2--------0-------------------2--------0---2----
E-------------------------0--------0-------------------3--------0---0----
	He finished this racism before he reached the start

(Slow and Soft)
	D 		 A	     G
E-------2----------------0-----------3-----------------------------------
B-------3----------------2-----------0-----------------------------------
G-------2----------------2-----------0-----------------------------------
D-------0----------------2-----------0-----------------------------------
A-------x----------------0-----------2-----------------------------------
E-------x----------------0-----------3-----------------------------------
	 Jesus loves the outcasts. He loves the ones 

	    A			   D  D			   A
E-----------0----------------------2--2--------------------0-------------
B-----------2----------------------3--3--------------------2-------------
G-----------2----------------------2--2--------------------2-------------
D-----------2----------------------0--0--------------------2-------------
A-----------0----------------------x--x--------------------0-------------
E-----------0----------------------x--x--------------------0-------------
	The world just loves to hate. As long as there's a heaven

		       G	  A	   D
E----------------------3----------0--------2-----------------------------
B----------------------0----------2--------3-----------------------------
G----------------------0----------2--------2-----------------------------
D----------------------0----------2--------0-----------------------------
A----------------------2----------0--------x-----------------------------
E----------------------3----------0--------x-----------------------------
	There'll be a failure to excommunicate.  

D 		 A	     G
E-------2----------------0-----------3-----------------------------------
B-------3----------------2-----------0-----------------------------------
G-------2----------------2-----------0-----------------------------------
D-------0----------------2-----------0-----------------------------------
A-------x----------------0-----------2-----------------------------------
E-------x----------------0-----------3-----------------------------------
	 Jesus loves the outcasts. He loves the ones 

	    A			   D  D			   A
E-----------0----------------------2--2--------------------0-------------
B-----------2----------------------3--3--------------------2-------------
G-----------2----------------------2--2--------------------2-------------
D-----------2----------------------0--0--------------------2-------------
A-----------0----------------------x--x--------------------0-------------
E-----------0----------------------x--x--------------------0-------------
	The world just loves to hate. As long as there's a heaven

		       G	  A	   D
E----------------------3----------0--------2-----------------------------
B----------------------0----------2--------3-----------------------------
G----------------------0----------2--------2-----------------------------
D----------------------0----------2--------0-----------------------------
A----------------------2----------0--------x-----------------------------
E----------------------3----------0--------x-----------------------------
	There'll be a failure to excommunicate.  
 
	G	   A	    D
E-------3----------0--------2~-------------------------------------------
B-------0----------2--------3~-------------------------------------------
G-------0----------2--------2~-------------------------------------------
D-------0----------2--------0~-------------------------------------------
A-------2----------0--------x~-------------------------------------------
E-------3----------0--------x~-------------------------------------------
	Failure to excommunicate.      (~: let ring)
Suggest correction
comments
print report bad tab
2 comments total.
0 reply
lalalalala 10 wrote on July 27 2003, 12:00 am

isn't it supposed to be power chords?

0 reply
Younginator 10 wrote on August 27 2007, 01:43 am

Almost Perfect IMO, Apart from the little solo bit at the end of the first bit.

I think it's 11-11-12-11-9-10

guest
You may want to rate the tab now too:
select rating
Wanna post a correction for this tab? Suggest correction