Oops, an error
Loading. Please wait.

Failure To Excommunicate Tab

version 3
version 3

Whole song

Interactive

1,425 views 3 this week
1 commentread comment
1 2 3 4 5
please rate
add to favorites
launch autoscroll
font size
0
reset
how to read this tab
guitar tuner
Autoscroll
slow
fast
+/-
esc
set tempo
stop
Help us to improve Ultimate-Guitar.com Take our survey!
×
Author
Relient K- Failure to Excommunicate
Anatomy of the Cheek and Tongue

p=pull-off
h=hammer-on
~=let ring
/=slide up/down

Intro: Guitar 2* (This part throughout the whole intro might be played by bass...i don't know)
E|----------------------------------------------------------------------------------------------|
B|----------------------------------------------------------------------------------------------|
G|----------------------------------------------------------------------------------------------|
D|----------------------------------------------------------------------------------------------|
A|----9----9----9----9----9----9----9----9----10----10----10----10----9----9----9----9----------|
D|-99---99---99---99---00---00---00---00---99----99----99----99----99---99---99---99------------|

After Inro: Guitar 1
E|-10-10-10-10-10p9-9-9-9-9-9h12-12-12-12-12-12p11-11-11-12-11-9--------------------------------|
B|----------------------------------------------------------------------------------------------|
G|----------------------------------------------------------------------------------------------|
D|----------------------------------------------------------------------------------------------|
A|----------------------------------------------------------------------------------------------|
D|----------------------------------------------------------------------------------------------|

Guitar 2
E|----------------------------------------------------------------------------------------------|
B|----------------------------------------------------------------------------------------------|
G|----------------------------------------------------------------------------------------------|
D|----------------------------------------------------------------------------------------------|
A|----9----9----9----9----9----9----9----9----10----10----10----10----9----9----9----9----------|
D|-99---99---99---99---00---00---00---00---99----99----99----99----99---99---99---99------------|

Guitar 1**
E|-10-10-10-10-9-9-9-9-12-12-12-12-11-11-11-11-10-10-10-10-9-9-9-9-12-12-12-12-1111111111111111|
B|-7--7--7--7--7-7-7-7-8--8--8--8--7--7--7--7--7--7--7--7--7-7-7-7-8--8--8--8--7-7-7-7-7-7-7-7-|
G|---------------------------------------------------------------------------------------------|
D|---------------------------------------------------------------------------------------------|(x2)
A|---------------------------------------------------------------------------------------------|
D|---------------------------------------------------------------------------------------------|

Guitar 2
E|----------------------------------------------------------------------------------------------|
B|----------------------------------------------------------------------------------------------|
G|----------------------------------------------------------------------------------------------|
D|----------------------------------------------------------------------------------------------|
A|----9----9----9----9----9----9----9----9----10----10----10----10----9----9----9----9----------|
D|-99---99---99---99---00---00---00---00---99----99----99----99----99---99---99---99------------|

Verse 1:  Guitar 1
E|----------------------------------------------------------------------------------------------|
B|----------------------------------------------------------------------------------------------|
G|----------------------------------------------------------------------------------------------|
D|-12~-12/5~-5/1212121212121212-77777777-1212121212121212-55555555-1212121212121212-77777777----|
A|-12~-12/5~-5/1212121212121212-77777777-1212121212121212-55555555-1212121212121212-77777777----|
D|-12~-12/5~-5/1212121212121212-77777777-1212121212121212-55555555-1212121212121212-77777777----|

Pre-Chorus: Guitar 1
E|----------------------------------------------------------------------------------------------|
B|----------------------------------------------------------------------------------------------|
G|----------------------------------------------------------------------------------------------|
D|-55-xxxxxx-77-xxxxxx-88-xxxxxx-9-9-7-7-5-5-5-5-7-7-7-7-12-12-12-12-9-9-7-7-5-5-5-5-7-7-xx-xx--|
A|-55-xxxxxx-77-xxxxxx-88-xxxxxx-9-9-7-7-5-5-5-5-7-7-7-7-12-12-12-12-9-9-7-7-5-5-5-5-7-7-xx-xx--|
D|-55-xxxxxx-77-xxxxxx-88-xxxxxx-9-9-7-7-5-5-5-5-7-7-7-7-12-12-12-12-9-9-7-7-5-5-5-5-7-7-xx-xx--|

Chorus: Just violins

Chorus outro:
E|-10-10-10-10-10p9-9-9-9-9-9h12-12-12-12-12-12p11-11-11-12-11-9--------------------------------|
B|----------------------------------------------------------------------------------------------|
G|----------------------------------------------------------------------------------------------|
D|----------------------------------------------------------------------------------------------|
A|----------------------------------------------------------------------------------------------|
D|----------------------------------------------------------------------------------------------|

Guitar 1
E|-10-10-10-10-9-9-9-9-12-12-12-12-11-11-11-11-10-10-10-10-9-9-9-9-12-12-12-12-1111111111111111-|
B|-7--7--7--7--7-7-7-7-8--8--8--8--7--7--7--7--7--7--7--7--7-7-7-7-8--8--8--8--7-7-7-7-7-7-7-7--|
G|----------------------------------------------------------------------------------------------|
D|----------------------------------------------------------------------------------------------|
A|----------------------------------------------------------------------------------------------|
D|----------------------------------------------------------------------------------------------|

Guitar 2
E|--------------------------------------------------------------------------------------------|
B|--------------------------------------------------------------------------------------------|
G|--------------------------------------------------------------------------------------------|
D|--------------------------------------------------------------------------------------------|(x2)
A|----9----9----9----9----9----9----9----9----10----10----10----10----9----9----9----9--------|
D|-99---99---99---99---00---00---00---00---99----99----99----99----99---99---99---99----------|

Verse 2:  Guitar 1
E|-----------------------------------------------------------------------------------------------|
B|-----------------------------------------------------------------------------------------------|
G|-----------------------------------------------------------------------------------------------|
D|-1212121212121212-55555555-1212121212121212-77777777-1212121212121212-55555555-1212121212121212|
A|-1212121212121212-55555555-1212121212121212-77777777-1212121212121212-55555555-1212121212121212|
D|-1212121212121212-55555555-1212121212121212-77777777-1212121212121212-55555555-1212121212121212|

              Pre-Chorus
                  |
E|----------------|-----------------------------------------------------------------------------|
B|----------------|-----------------------------------------------------------------------------|
G|----------------|-----------------------------------------------------------------------------|
D|-77777777-------|-55-xxxxxx-77-xxxxxx-88-xxxxxx-9-9-7-7-5-5-5-5-7-7-7-7-12-12-12-12-9-9-7-7---|
A|-77777777-------|-55-xxxxxx-77-xxxxxx-88-xxxxxx-9-9-7-7-5-5-5-5-7-7-7-7-12-12-12-12-9-9-7-7---|
D|-77777777-------|-55-xxxxxx-77-xxxxxx-88-xxxxxx-9-9-7-7-5-5-5-5-7-7-7-7-12-12-12-12-9-9-7-7---|

E|------------------------------|
B|------------------------------|
G|------------------------------|
D|-5-5-5-5-7-7-xx-xx----12~-----|
A|-5-5-5-5-7-7-xx-xx----12~-----|
D|-5-5-5-5-7-7-xx-xx----12~-----|

Chorus: Acoustic Guitar

  D                A
Jesus loves the outcasts,
     Bm                 A                  Bm     D
He loves the ones the world just loves to hate.
                           A
And as long as there's a heaven,
                 Bm       A        Bm
There'll be a failure to excommunicate.
  D         A        Bm
Failure to excommuicate.

(Violins from here on out)


*This very vell could be the bass.
**If guitar 2 is the bass then the '7s' and '8s' in the harmonic part with guitar 1 in the intro
  and Chorus outro is the actual guitar 2 part.
Suggest correction
Give kudos to tab author, rate the tab!
1 2 3 4 5
comments
print report bad tab
1 comment total.
0 reply
nickjlunn 301 wrote on October 21 2009, 07:52 pm

Comments? Ratings?

guest
You may want to rate the tab now too:
select rating
Please do not post tabs as comments. Select "correction" instead!