Oops, an error
Loading. Please wait.

Faking My Own Suicide Bass Tab

1,638 views 1 this week
2 commentsread comments
1 2 3 4 5
x 3
add to favorites
launch autoscroll
font size
0
reset
guitar tuner
Autoscroll
slow
fast
+/-
esc
set tempo
stop
Help us to improve Ultimate-Guitar.com Take our survey!
×
Author
Difficulty
novice
------------------------------------------------------------------
FAKING MY OWN SUICIDE – RELIENT K – FIVE SCORE AND SEVEN YEARS AGO
------------------------------------------------------------------

Tabbed By: kstar19
E-mail: gophered@hotmail.com

Tuning: standard tuning


Intro
G|------------------4-|
D|4-3-1---------------|
A|------2-4-1-6-4-2---|
E|--------------------|

Pause for all of first verse

Chorus
G|--------------------------------4-|
D|4-3-1---------4-3-1---------------|
A|------2---2-4-------2-4-1-6-4-2---|
E|--------2-------------------------|

Verse 2
G|------------------------------4-|
D|4-3-1-------4-3-1---------------|
A|------2-4-6-------2-4-1-6-4-2---|
E|--------------------------------|

Chorus
G|--------------------------------4-|
D|4-3-1---------4-3-1---------------|
A|------2---2-4-------2-4-1-6-4-2---|
E|--------2-------------------------|

Verse 3
G|------------------------------4-|
D|4-3-1-------4-3-1---------------|
A|------2-4-6-------2-4-1-6-4-2---|
E|--------------------------------|

Chorus
G|--------------------------------4-|
D|4-3-1---------4-3-1---------------|
A|------2---2-4-------2-4-1-6-4-2---|
E|--------2-------------------------|

Ending
G|-----------------------------|
D|---------------------------4-|
A|1-2-4--1-2-4--1-2-4--1-2-4---|
E|-----------------------------|


Relient K does it again!!!!!  Its a fun song despite the title.  You can figure out the 
 Have Fun!!!
                                       ~kstar19
Suggest correction
Give kudos to tab author, rate the tab!
1 2 3 4 5
comments
print report bad tab
2 comments total.
0 reply
anoun_626 31 Apr 03, 2009 09:37 AM

Great band, great song, great tab, great job bruz XD

but personally i think that the LAST note should actually be on the G string (o_O) and not the D string :S

oh well, basically a perfect brilliant tab XD

0 reply
anoun_626 31 Apr 03, 2009 09:41 AM

oops, i mean the upper octave on the G string (6fret) but i just realised that it doesnt matter either way

guest
You may want to rate the tab now too:
select rating
Wanna post a correction for this tab? Suggest correction