Oops, an error
Loading. Please wait.

Falling Out Bass Tab

version 2
version 2

Whole song

Interactive

443 views 1 this week
no commentswrite comment
1 2 3 4 5
accurate
x 3
add to favorites
launch autoscroll
font size
0
reset
guitar tuner
Autoscroll
slow
fast
+/-
esc
set tempo
stop
Help us to improve Ultimate-Guitar.com Take our survey!
×
Falling Out
Relient K
Two Lefts Don't Make a Right...But Three Do

Tabbed By: Eric C
E-Mail: ctfmaster@hotmail.com (No Requests)

This is an easy song, for Guitar and Bass, but it is a fun song, and brings a great message

This is the version i play and think that it sounds right, but im not 100% Sure,
let me know through e-mail or Rate this!

---------------------
(Guitar Intro)0:00
---------------------

Intro/Verse:
(0:11)
G|------------------------------------------------------------------|
D|------------------------------------------------------------------|
A|--1-1-1-1-1-1-1-1-3-3-3-3-3-3-3-3-6-6-6-6-6-6-6-6-----------------|  x4
E|--------------------------------------------------3-3-3-3-1-1-1-1-|

Chorus
(0:41)
G|------------------------------------------------------------------|
D|------------------------------------------------------------------|
A|--5-5--5-5-6-6-6-6-6-6-6-6----------------------------------------|  x2
E|---------------------------6-6-6-6-6-6-6-6-1-1-1-1-1-1-1-1--------|

Verse 2
(0:57)
G|------------------------------------------------------------------|
D|------------------------------------------------------------------|
A|--1-1-1-1-1-1-1-1-3-3-3-3-3-3-3-3-6-6-6-6-6-6-6-6-----------------|  x3
E|--------------------------------------------------3-3-3-3-1-1-1-1-|

Chorus
(1:20)
G|------------------------------------------------------------------|
D|------------------------------------------------------------------|
A|--5-5--5-5-6-6-6-6-6-6-6-6----------------------------------------|  x2
E|---------------------------6-6-6-6-6-6-6-6-1-1-1-1-1-1-1-1--------|

Transition
(1:35)
G|-------|
D|--6-8~-|
A|-------|
E|-------|

Bridge
(1:38)
G|-----------------------------------------------------------------------|
D|-----------------------------------------------------------------------|
A|1-1-1-1-1-1-1-1-3-3-3-3-3-3-3-3------------------8-8-8---8-8-8---8-8-8-|  x2
E|--------------------------------3-3-3-3-3-3-3-3------------------------|
                                                   |--1st time Smooth----|
                                                   |--2nd Time Choppy----|

---------------
Piano Solo
(2:08)
---------------
Pre-Chorus
(2:24)

G|-----------------------------------------------------------------------|
D|-----------------------------------------------------------------------|
A|6-6-6---6-6-6-6-6-6-6-6-3-3-3-3-3-3-3-3-1-1-1-1-1-1-1-1----------------|
E|-----------------------------------------------------------------------|

G|-----------------------------------------------------------------------|
D|-----------------------------------------------------------------------|
A|6-6-6-6-3-3-3-3-1-1-1-1-1-1-1-1-3-3-3-3-3-3-3-3------------------------|
E|------------------------------------------------6-6-6-6-6-6-6-6--------|

G|-----------------------------------------------------------------------|
D|-----------------------------------------------------------------------|
A|-----------------------------------------------------------------------|
E|----3-3-3-3-1-1-1-1----------------------------------------------------|

Chorus
(2:41)
DO NOT play the --55---55-- on FACE DOWN this time so it looks like this:

G|------------------------------------------------------------------|
D|------------------------------------------------------------------|
A|-----------6-6-6-6-6-6-6-6----------------------------------------|  x2
E|---------------------------6-6-6-6-6-6-6-6-1-1-1-1-1-1-1-1--------|

Transition
(2:55)
G|-------|
D|--6-8~-|
A|-------|
E|-------|

Outro
(2:57)
G|-----------------------------------------------------------------------|
D|-----------------------------------------------------------------------|
A|1-1-1-1-1-1-1-1-3-3-3-3-3-3-3-3------------------8-8-8---8-8-8---8-8-8-| x2
E|--------------------------------3-3-3-3-3-3-3-3------------------------|
                                                   |--1st time Smooth----|
                                                   |--2nd Time Choppy----|
Ending
(3:28)
G|------------------------------------------------------------------|
D|------------------------------------------------------------------|
A|--1-1-1-1-1-1-1-1-3-3-3-3-3-3-3-3-6-6-6-6-6-6-6-6-----------------|  x2
E|--------------------------------------------------3-3-3-3-1-1-1-1-|

Check Out Thousand Foot Krutch and Project 86, they are incredible bands!
Suggest correction What's this?
You can suggest a correction to this tab. Community and Mods will review your correction and vote to approve or reject it.
comments
We did not receive enough feedback on this tab! Please rate:
print report bad tab
1 2 3 4 5
I want to post or [tab]
guest
You may want to rate the tab now too:
select rating
Please do not post tabs as comments. Select "correction" instead!