Oops, an error
Loading. Please wait.

Falling Out Tab

version 4
version 4

Whole song

Interactive

6,695 views 3 this week
7 commentsread comments
1 2 3 4 5
x 7
add to favorites
launch autoscroll
font size
0
reset
how to read this tab
guitar tuner
Autoscroll
slow
fast
+/-
esc
set tempo
stop
Help us to improve Ultimate-Guitar.com Take our survey!
×
Author
Difficulty
Tuning
intermediate
D A D G B E
lyrics are included under the correct measure.  enjoy!

intro: guitar 1
e------------------------------------->
B-3-3-3-3-4-4-4-4-3-3-3-3-----3-1-1--->
G--3-3-3-3-3-3-3-3-3-3-3-3-0-3-3-3-3-->
D-------------------------------3----->
A------------------------------------->
D------------------------------------->

intro cont'd: guitar 2
e---------------------------------------->
B---------------------------------------->
G-33333333-55555555-88888888------------->
D-33333333-55555555-88888888-5555-3333--->  repeat
A-11111111-33333333-66666666-5555-3333--->
D----------------------------5555-3333--->

verse 1: guitar 2 (guitar 1 repeat intro)
e---------------------------------------->
B---------------------------------------->
G-3xxxxxxx-5xxxxxxx-8xxxxxxx------------->
D-3xxxxxxx-5xxxxxxx-8xxxxxxx-5xxx-3xxx--->  repeat
A-1xxxxxxx-3xxxxxxx-6xxxxxxx-5xxx-3xxx--->
D----------------------------5xxx-3xxx--->
I’m falling out of grace with the world they say I’ve lost my Midas touch
what turned to gold now turns to rust I’m falling out of line with all the
stars that flood my dreams with their guitars and magazines

chorus 1: guitar 2
e------------------------------------------------------------>
B------------------------------------------------------------>
G-77--77--888888-333333--------77--77--888888-333333--------->
D-77--77--888888-333333-333333-77--77--888888-333333-333333-->
A-55--55--666666-111111-333333-55--55--666666-111111-333333-->
D-----------------------333333-----------------------333333-->
facedown this carpet tastes like coffee grounds grounded into my face now
and every angle is covered with just another

repeat “intro cont'd” (first half)

verse 2: guitar 2 (guitar 1 repeat intro)
e---------------------------------------->
B---------------------------------------->
G-3xxxxxxx-5xxxxxxx-8xxxxxxx------------->
D-3xxxxxxx-5xxxxxxx-8xxxxxxx-5xxx-3xxx--->  repeat
A-1xxxxxxx-3xxxxxxx-6xxxxxxx-5xxx-3xxx--->
D----------------------------5xxx-3xxx--->
I’m falling out of style with the current way things are the things that
make conforming hard I’m falling out of control and you just cant stop me
now I’ll fight as long as time allows

chorus 2: guitar 2
e------------------------------------------------------------>
B------------------------------------------------------------>
G-77--77--888888-333333--------77--77--888888-333333--------->
D-77--77--888888-333333-333333-77--77--888888-333333-333333-->
A-55--55--666666-111111-333333-55--55--666666-111111-333333-->
D-----------------------333333-----------------------333333-->
facedown this carpet tastes like coffee grounds grounded into my face now
and every angle is covered with just another band-aid

chorus 2: guitar 2
e------------------------------------------------------->
B------------------------------------------------------->
G-3333333333333-5555555555555--------------88888888888-->
D-3333333333333-5555555555555-555555555555-88888888888--> repeat
A-1111111111111-3333333333333-555555555555-66666666666-->
D-----------------------------555555555555-------------->
I’m out here way beyond a shadow of a doubt and I know I’m never fallin out
of favor with you I’m out here way beyond a shadow of a doubt and I know I’m
never fallin out of favor with you

bridge: piano and guitar 2 (first is piano)
e------------------------------------------------------------>
B------------------------------------------------------------>
G-----------------------------------8888888------------------>
D-333--6xxx5xxx3xxx--888-777-555555-8888888-3333333-888-777-->
A-333--6xxx5xxx3xxx--888-888-555555-6666666-3333333-888-888-->
D-333--6xxx5xxx3xxx--888-777-555555---------3333333-888-777-->
I wont think twice or even three times about taking a gamble with you cuz
with my life you have been so kind I take all my comfort from

chorus 3: guitar 2
e-------------------------------------------------------------------------->
B-------------------------------------------------------------------------->
G-7xx--xx--888888-333333---------77--77--8888888-3333333------------------->
D-7xx--xx--888888-333333-3333333-77--77--8888888-3333333-3333333----------->
A-5xx--xx--666666-111111-3333333-55--55--6666666-1111111-3333333----------->
D------------------------3333333-------------------------3333333----------->
You facedown this carpet tastes like coffee grounds grounded into my face
now and every angle is covered with just another band-aid

chorus 3: guitar 2
e------------------------------------------------------->
B------------------------------------------------------->
G-3333333333333-5555555555555--------------88888888888-->
D-3333333333333-5555555555555-555555555555-88888888888--> repeat
A-1111111111111-3333333333333-555555555555-66666666666-->
D-----------------------------555555555555-------------->
I’m out here way beyond a shadow of a doubt and I know I’m never fallin out
of favor with you I’m out here way beyond a shadow of a doubt and I know I’m
never fallin out of favor with you

outro: guitar 1
/e----------------------------------------------------------------------->\
|B-3-3-3-3-4-4-4-4-3-3-3-3-----3-1-1-3-3-3-3-4-4-4-4-3-3-3-3--777777----->|
|G--3-3-3-3-3-3-3-3-3-3-3-3-0-3-3-3-3-3-3-3-3-3-3-3-3-3-3-3-3-888888-7~~->|
|D-------------------------------3-----------------------------------8~~->|
|A----------------------------------------------------------------------->|
|D----------------------------------------------------------------------->|
|                                                                         |
|outro: guitar 2                                                          |
|e----------------------------------------------------------------------->|
|B----------------------------------------------------------------------->|
|G-3333333-5555555-8888888-----------33333333-55555555-888888-888888-7~~->|
|D-3333333-5555555-8888888-5555-3333-33333333-55555555-888888-888888-8~~->|
|A-1111111-3333333-6666666-5555-3333-11111111-33333333-666666-666666-8~~->|
\D-------------------------5555-3333---------------------------------8~~->/
Suggest correction
comments
print report bad tab
7 comments total. Showing first comments.
0 reply
aquaknight3 2,601 Jul 18, 2005 12:00 AM

sorry.. this part right here:

e-------------------------------------------------------------------------->
B-------------------------------------------------------------------------->
G----------------333333-555555-----------------------333333-555555--------->
D-00--00--111111-333333-555555-555555-00--00--111111-333333-555555-555555-->
A-00--00--111111-111111-333333-555555-00--00--111111-111111-333333-555555-->
D-00--00--111111---------------555555-00--00--111111---------------555555-->

should be:

e-------------------------------------------------------------------------->
B-------------------------------------------------------------------------->
G----------------333333-555555-----------------------333333-555555--------->
D-00--00--111111-333333-555555-333333-00--00--111111-333333-555555-333333-->
A-00--00--111111-111111-333333-333333-00--00--111111-111111-333333-333333-->
D-00--00--111111---------------333333-00--00--111111---------------333333-->

sorry bout that. i corrected it later on in the tab, but i missed it on the first chorus. (above)

0 reply
marktuazon 40 Feb 28, 2007 03:57 PM

if ur goona use that tuning play everything 2 frets up if u want cd sound. other than that its good. also u can try tuning down to use this tab

0 reply
E_squared 20 Apr 26, 2008 08:40 PM

Great tab, but using drop-D tuning is really unnecessary. You can play it in standard tuning also.

guest
You may want to rate the tab now too:
select rating
Wanna post a correction for this tab? Suggest correction