Oops, an error
Loading. Please wait.

For The Moments I Feel Faint chords

version 3
version 3

Whole song

61,587 views 30 this week
3 commentsread comments
1 2 3 4 5
x 4
add to favorites
×
Save as Personal and add changes to this tab that will be seen only by you. Learn more ›
×
You can save this tab as Personal to edit and correct it or add notes. All changes will be seen only by you. Learn more »
launch autoscroll
font size
0
reset
transpose
0
reset
simplify chords
display chords
guitar tuner
edit
Autoscroll
slow
fast
+/-
esc
set tempo
stop
Author
Strumming
There is no strumming pattern for this song yet. and get +5 IQ
[Riff 1]
e|--0----0----0----0----0----0----0----0----0----0--|
B|--x----x----x----x----x----x----x----x----x----x--|
G|--13---13---14---13---11---13---13---8----9----11-|
D|--x----x----x----x----x----x----x----x----x----x--|
A|--11---11---12---11---9----11---11---6----7----9--|
E|--0----0----0----0----0----0----0----0----0----0--|

[Verse 1]
E            A2     C#m7        Bmsus
 Am I at the point     of no improvement?
E            A2      C#m7        Bmsus  Bbmaj9
 What of the death I still dwell in?
E          A2          C#m7    Bmsus
 I try to excel, but I feel no movement.
E         A2           C#m7         Bmsus  Bbmaj9
 Can I be free of this unreleasable sin?

[Chorus]
E     A2     Cdim       Bmsus
Never underestimate my Jesus.
E                  A2   
You're telling me there's no hope.
    Cdim             Bmsus  Bbmaj9
I'm telling you your wrong.
E     A2     Cdim       Bmsus
Never underestimate my Jesus
E                A2   
When the world around you crumbles
Cdim          Bmsus           
He will be strong, He will be strong

[Riff 1]
e|--0----0----0----0----0----0----0----0----0----0--|
B|--x----x----x----x----x----x----x----x----x----x--|
G|--13---13---14---13---11---13---13---8----9----11-|
D|--x----x----x----x----x----x----x----x----x----x--|
A|--11---11---12---11---9----11---11---6----7----9--|
E|--0----0----0----0----0----0----0----0----0----0--|

[Verse 2]
E             A2     C#m7              Bmsus
I throw up my hands     Oh, the impossibilities
E              A2            C#m7       Bmsus  Bbmaj9
Frustrated and tired Where do I go from here?
E                 A2                 C#m7         Bmsus
Now I'm searching for the confidence I've lost so willingly
E                A2        C#m7               Bmsus  Bbmaj9
Overcoming these obstacles   is overcoming my fear

[Chorus]
E     A2     Cdim       Bmsus
Never underestimate my Jesus.
E                  A2   
You're telling me there's no hope.
    Cdim             Bmsus  Bbmaj9
I'm telling you your wrong.
E     A2     Cdim       Bmsus
Never underestimate my Jesus
E                A2   
When the world around you crumbles
Cdim          Bmsus           
He will be strong, He will be strong

[Bridge]
E                   A2
   I think I can't,     I think I can't
C#m7            C2
But I think you can, I think you can
E                   A2
   I think I can't,     I think I can't
C#m7            C2
But I think you can, I think you can
F#msus                Asus2
Gather my insufficiencies and
                   E      A2                 C#m7   Bmsus
place them in your hands, place them in your hands, place them in your hands

[Instrumental]
[Riff 1]
e|--0----0----0----0----0----0----0----0----0----0--|
B|--x----x----x----x----x----x----x----x----x----x--|
G|--13---13---14---13---11---13---13---8----9----11-|
D|--x----x----x----x----x----x----x----x----x----x--|
A|--11---11---12---11---9----11---11---6----7----9--|
E|--0----0----0----0----0----0----0----0----0----0--|

[Chorus]
E     A2     Cdim       Bmsus
Never underestimate my Jesus.
E                  A2   
You're telling me there's no hope.
    Cdim             Bmsus  Bbmaj9
I'm telling you your wrong.
E     A2     Cdim       Bmsus
Never underestimate my Jesus
E                A2   
When the world around you crumbles
Cdim          Bmsus           
He will be strong, He will be strong

[Outro]
[Riff 1]
e|--0----0----0----0----0----0----0----0----0----0--|
B|--x----x----x----x----x----x----x----x----x----x--|
G|--13---13---14---13---11---13---13---8----9----11-|
D|--x----x----x----x----x----x----x----x----x----x--|
A|--11---11---12---11---9----11---11---6----7----9--|
E|--0----0----0----0----0----0----0----0----0----0--|

[Ending]
E

            
            
Suggest correction
Creating personal tab
Creating personal tab
You can edit any tab online and save it as your Personal.

You can edit, replace or remove any tab part or add personal notes – all changes will be seen only by you.

Personal tabs can be accessed anytime from any device, even offline.
Learn more »
comments
print report bad tab
3 comments total.
0 reply
matt2000 10 May 22, 2010 01:50 PM

When playing with a single guitar, you can get a little bit better feel for the other parts by tuning strings 3,4, and 5 down a half step and then playing the intro/interludes as:

e---0---0-0-0-0--0----0-0-0---
B---0---0-0-0-0--0----0-0-0---
Gb--2--h3p2-0h2--7----0-0-0--- :x2
Db--3---3-3-3-3--7----2-3-5---
Ab--3---3-3-3-3--5----3-3-3---
E---0---0-0-0-0---------------
E A2/E C#m7 Bsus4

0 reply
matt2000 10 May 22, 2010 01:51 PM

Chord names got shifted to the left above, but just follow the tab, you'll get it.

0 reply
Tadhg212vqm 10 Jan 03, 2015 04:10 PM

Great tab! Your the only tab I've seen that includes the intro riff. Thanks!

guest
You may want to rate the tab now too:
select rating
Wanna post a correction for this tab? Suggest correction