Oops, an error
Loading. Please wait.

Forget And Not Slow Down Tab

version 2
version 2

Whole song

2,511 views 9 this week
no commentswrite comment
1 2 3 4 5
accurate
x 3
add to favorites
launch autoscroll
font size
0
reset
how to read this tab
guitar tuner
Tab Pro tools
  • play this tab
  • loop segment
  • change instrument
  • show fretboard
  • metronome
×
Best way to learn
"Forget And Not Slow Down"
Autoscroll
slow
fast
+/-
esc
set tempo
stop
Contributor
Difficulty
Tuning
intermediate
D# G# C# F# A# D#
Guitar Tuned down one Half Step (Eb Bb Gb Db Ab Eb)


Intro and verse


eb-000-00000000-|000-00000000-|--000-00000000000000000000-|
bb-000-00000000-|000-00000000-|--000-00000000000000000000-|
gb-222-11111111-|222-11111111-|--222-66666xxxxxxxxxxxxxxx-| x3
db-222-22222222-|222-22222222-|--222-77777222226666677777-|
ab-000-22222222-|000-22222222-|--000-00000000000000000000-|
eb-----00000000-|----00000000-|--000----------------------|

  How many times.....

Chorus


eb-00000-00000--|-00000-00000-|      --000--|
bb-00000-00000--|-00000-00000-|      --000--|
gb-66666-44444--|-11111-22222-| x2   --222--|
db-66666-44444--|-22222-22222-|      --222--|
ab-44444-22222--|-22222-00000-|      --000--|
eb--------------|-00000-------|      --000--|

   I'd rather forget....

play intro again.


verse 2


   palm mute---
eb--------------|   ----|   000----------|    --000-00000000000000000000-|
bb--------------|   ----|   000----------|    --000-00000000000000000000-|
gb--------------|x2 ----|   222-11111111-|x2  --222-66666xxxxxxxxxxxxxxx-|
db-222----------|   2222|   222-22222222-|    --222-77777222226666677777-|
ab-000-22222222-|   0000|   000-22222222-|    --000-00000000000000000000-|
eb-----00000000-|   ----|   ----00000000-|    --000----------------------|

  Its time to...            i'll watch the...


Bridge                                                 palm mute

eb--------------------------------------| -00000-|    -------|      
bb--------------------------------------| -00000-|    -------|      
gb-888888889999999988888888-------------| -11111-|    -22222-|
db-777777777777777777777777-999-11-4----| -22222-|    -22222-|      
ab-000000000000000000000000-000-0--0----| -22222-|    -00000-|      
eb--------------------------------------| -00000-|    -------|    

cause I could spend my life...                  oh, oh..   


Chorus


eb-00000-00000--|-00000-00000-|      --000--|
bb-00000-00000--|-00000-00000-|      --000--|
gb-66666-44444--|-11111-22222-| x2   --222--|
db-66666-44444--|-22222-22222-|      --222--|
ab-44444-22222--|-22222-00000-|      --000--|
eb--------------|-00000-------|      --000--|

I'd rather forget....


Bridge part 2

   palm mute....

eb--------------------------------------| -00000-|       
bb--------------------------------------| -00000-|       
gb-888888889999999988888888-------------| -11111-| x8 measures
db-777777777777777777777777-999-11-4----| -22222-|       
ab-000000000000000000000000-000-0--0----| -22222-|       
eb--------------------------------------| -00000-| 

I could spend my life...                  oh, oh..  

 
Break

guitar 1

eb--------------------------------------------------|        
bb--------------------------------------------------|        
gb--------------------------------------------------|  
db-2-1-2-1-2/4-6-4-6-4-6/7-7-6-7-6-7/9-9-7-9-7-7h9--|        
ab--------------------------------------------------|       
eb--------------------------------------------------|

guitar 2


eb-0-------------------------------------|        
bb-0-------------------------------------|        
gb-2~~~~ let ring------------------------|  
db-2-------------------------------------|        
ab-0-------------------------------------|       
eb---------------------------------------|





eb--------------------------------------|        
bb--------------------------------------|        
gb--------------------------------------|  
db--22222222444444446666666677777777----|    x4    
ab--4444444422222222xxxxxxxx00000000----|       
eb------------------00000000------------|

i'd rather forget...


play chorus x2

the end.
comments
We did not receive enough feedback on this tab! Please rate:
print report bad tab
1 2 3 4 5
I want to post or [tab]
guest
You may want to rate the tab now too:
select rating
Please do not post tabs as comments. Select "correction" instead!