Oops, an error
Loading. Please wait.

Forgiven Tab

version 1
version 1

Whole song

Interactive

6,118 views 3 this week
6 commentsread comments
1 2 3 4 5
x 6
add to favorites
launch autoscroll
font size
0
reset
how to read this tab
guitar tuner
Autoscroll
slow
fast
+/-
esc
set tempo
stop
Help us to improve Ultimate-Guitar.com Take our survey!
×
Author
Difficulty
intermediate
Song:Forgiven
Artist:Relient K
Album:Five Score And Seven Years Ago
Label:Capitol/Gotee

Eb tuning

~=vibrato

Verse 1
Eb-------------------------------------------------------------------|
Bb-------------------------------------------------------------------|
Gb-------------------------------------------------------------------|
Db-------------------------------------------------------------------|
Ab-77777777777777777777777777777777----------------------------------|
Eb----------------------------------33333333333333333333333333333333-|
PM..................................................................

Eb--------------------------------------------------------------------|
Bb--------------------------------------------------------------------|
Gb--------------------------------------------------------------------|
Db--------------------------------------------------------------------|
Ab-----------------------------------77777777777777777777777777777777-|
Eb-5555555555555555-8888888888888888----------------------------------|
PM...................................................................

Eb-------------------------------------------------------------------|
Bb-------------------------------------------------------------------|
Gb-------------------------------------------------------------------|
Db-------------------------------------------------------------------|
Ab-77777777777777777777777777777777----------------------------------|
Eb----------------------------------33333333333333333333333333333333-|
PM..................................................................

Eb--------------------------------------------------------------------|
Bb--------------------------------------------------------------------|
Gb--------------------------------------------------------------------|
Db--------------------------------------------------------------------|
Ab-----------------------------------77777777777777777777777777777777-|
Eb-5555555555555555-8888888888888888----------------------------------|
PM...................................................................

(NOTE: you can either strum the first string or the whole power chord
 in the verses)

Pre-Chorus

Guitar 1
Eb---------------------------------------------------------------------|
Bb---------------------------------------------------------------------|
Gb-7777777777777777-5555555555555555-4444444444444444-8888888888888888-|
Db-7777777777777777-5555555555555555-4444444444444444-9999999999999999-|
Ab-5555555555555555-3333333333333333-2222222222222222-6666666666666666-|
Eb---------------------------------------------------------------------|

Guitar 2
Eb-----------------------------------------------|
Bb-----------------------------------------------|
Gb-12/12/12/11/11/11/11/12/12/12/12/11/11/11/11/-
Db--x/-x/-x/-x/-x/-x/-x/-x/-x/-x/-x/-x/-x/-x/-x/-|x2
Ab-10/10/10/-9/-9/-9/-9/10/10/10/10/-9/-9/-9/-9/-|
Eb-----------------------------------------------|

Eb----------------------------------|
Bb----------------------------------|
Gb-88888888-11/11/11/11/11/11/11/11-|
Db-xxxxxxxx--x/-x/-x/-x/-x/-x/-x/-x-|
Ab-66666666--9/-9/-9/-9/-9/-9/-9/-9-|
Eb----------------------------------|

Chorus

Guitar 1
Eb---------------------------------------------------------------------|
Bb---------------------------------------------------------------------|
Gb-9999999999999999------------------6666666666666666-4444444444444444-|
Db-9999999999999999-7777777777777777-6666666666666666-4444444444444444-| x2
Ab-7777777777777777-7777777777777777-4444444444444444-2222222222222222-|
Eb------------------5555555555555555-----------------------------------|

Guitar 2
Eb-------------------------------------------------|
Bb-------------------------------------------------|
Gb-------------------------------------------------|
Db-13-------14-------6------13------8------11------| x2
Ab--x-(x16)--x-(x16)-x-(x8)--x-(x8)-x-(x8)--x-(x8)-|
Eb-11-------12-------4------11------6-------9------|


Verse 2
Eb-------------------------------------------------------------------|
Bb-------------------------------------------------------------------|
Gb-------------------------------------------------------------------|
Db-------------------------------------------------------------------|
Ab-77777777777777777777777777777777----------------------------------|
Eb----------------------------------33333333333333333333333333333333-|
PM..................................................................

Eb--------------------------------------------------------------------|
Bb--------------------------------------------------------------------|
Gb--------------------------------------------------------------------|
Db--------------------------------------------------------------------|
Ab-----------------------------------77777777777777777777777777777777-|
Eb-5555555555555555-8888888888888888----------------------------------|
PM...................................................................

Eb-------------------------------------------------------------------|
Bb-------------------------------------------------------------------|
Gb-------------------------------------------------------------------|
Db-------------------------------------------------------------------|
Ab-77777777777777777777777777777777----------------------------------|
Eb----------------------------------33333333333333333333333333333333-|
PM..................................................................

Eb--------------------------------------------------------------------|
Bb--------------------------------------------------------------------|
Gb--------------------------------------------------------------------|
Db--------------------------------------------------------------------|
Ab-----------------------------------77777777777777777777777777777777-|
Eb-5555555555555555-8888888888888888----------------------------------|
PM...................................................................

Pre-Chorus 2

Guitar 1
Eb----------------------------------------------------------|
Bb----------------------------------------------------------|
Gb-7-7-7-7-7-7-7-7-5-5-5-5-5-5-5-5-4-4-4-4-4-4-4-4-88888888-|
Db-7-7-7-7-7-7-7-7-5-5-5-5-5-5-5-5-4-4-4-4-4-4-4-4-99999999-|
Ab-5-5-5-5-5-5-5-5-3-3-3-3-3-3-3-3-2-2-2-2-2-2-2-2-66666666-|
Eb----------------------------------------------------------|

Guitar 2
Eb--------------------------------------|
Bb-12-12-10-10---12-12--10-10-----------|
Gb-12-12-11-11---12-12--11-11--88888888-|
Db-----------------------------xxxxxxxx-|
Ab-----------------------------66666666-|
Eb--------------------------------------|

Chorus

Guitar 1
Eb---------------------------------------------------------------------|
Bb---------------------------------------------------------------------|
Gb-9999999999999999------------------6666666666666666-4444444444444444-|
Db-9999999999999999-7777777777777777-6666666666666666-4444444444444444-| x2
Ab-7777777777777777-7777777777777777-4444444444444444-2222222222222222-|
Eb------------------5555555555555555-----------------------------------|

Guitar 2
Eb-------------------------------------------------|
Bb-------------------------------------------------|
Gb-------------------------------------------------|
Db-13-------14-------6------13------8------11------| x2
Ab--x-(x16)--x-(x16)-x-(x8)--x-(x8)-x-(x8)--x-(x8)-|
Eb-11-------12-------4------11------6-------9------|

Bridge
(NOTE: this is a guitar part in the background, you have to listen
 closely to hear it, and also at this part it sounds like the verse but the
 guitar is not playing the riff from the verse)

Guitar 1
Eb----------------------------------------------------------12~-|
Bb----------------------------------------------------------12~-|
Gb--------------------------------------------------------------|
Db---------------------------------5-5-5------5-5-5-------------|
Ab---------7-7-7-----------5-5h7-7------------------5-5-5-------|
Eb-7-7-5-5------------------------------------------------------|

Chorus

Guitar 1
Eb---------------------------------------------------------------------|
Bb---------------------------------------------------------------------|
Gb-9999999999999999------------------6666666666666666-4444444444444444-|
Db-9999999999999999-7777777777777777-6666666666666666-4444444444444444-| x2
Ab-7777777777777777-7777777777777777-4444444444444444-2222222222222222-|
Eb------------------5555555555555555-----------------------------------|

Guitar 2
Eb-------------------------------------------------|
Bb-------------------------------------------------|
Gb-------------------------------------------------|
Db-13-------14-------6------13------8------11------| x2
Ab--x-(x16)--x-(x16)-x-(x8)--x-(x8)-x-(x8)--x-(x8)-|
Eb-11-------12-------4------11------6-------9------|

Outro
Eb-------------------------------------------------------------------|
Bb-------------------------------------------------------------------|
Gb-------------------------------------------------------------------|
Db-------------------------------------------------------------------|
Ab-77777777777777777777777777777777----------------------------------|
Eb----------------------------------33333333333333333333333333333333-|
PM..................................................................

Eb--------------------------------------------------------------------|
Bb--------------------------------------------------------------------|
Gb--------------------------------------------------------------------|
Db--------------------------------------------------------------------|
Ab-----------------------------------77777777777777777777777777777777-|
Eb-5555555555555555-8888888888888888----------------------------------|
PM...................................................................

Eb-------------------------------------------------------------------|
Bb-------------------------------------------------------------------|
Gb-------------------------------------------------------------------|
Db-------------------------------------------------------------------|
Ab-77777777777777777777777777777777----------------------------------|
Eb----------------------------------33333333333333333333333333333333-|
PM..................................................................

Eb------------------7----|
Bb------------------x----|
Gb------------------9--9-|
Db---------------------9-|
Ab---------------------7-|
Eb-5555555555555555------|
PM.................

That's it please rate and comment

Tabbed by HolyBlood8
Suggest correction
comments
print report bad tab
6 comments total. Showing first comments.
0 reply
LDPGuitarist27 750 Jun 20, 2007 03:58 PM

could someone please tell me what Eb tuning is?

0 reply
MidgtGuitarist 768 Jun 20, 2007 04:52 PM

tune every string down half a step (one note) go from

E
B
G
D
A
E

to

Eb
Bb
Gb
Db
Ab
Eb

0 reply
ShreddyKickflip 21 Dec 31, 2008 11:31 PM

Great tab! although, in the Chorus, I think the first power chord is

|9
D|2 instead of |9
A|2 |7
E|0 |-

guest
You may want to rate the tab now too:
select rating
Wanna post a correction for this tab? Suggest correction