Oops, an error
Loading. Please wait.

Forward Motion Tab

version 3
version 3

Whole song

Interactive

2,392 views 1 this week
2 commentsread comments
1 2 3 4 5
1 last vote to show rating
add to favorites
launch autoscroll
font size
0
reset
how to read this tab
guitar tuner
Autoscroll
slow
fast
+/-
esc
set tempo
stop
Help us to improve Ultimate-Guitar.com Take our survey!
×
tuning is probably normal.. i just have it in drop d in this tab.  lyrics
included.  please rate, thanks! enjoy

intro: guitar 1
e------------------------------1-1-1-4-1-2-1-->
B-xx2-4-2-4-xx-2-1-2-1-xx-1-2-4-4------------->
G---------------------------------------------> repeat
D--------------------------------------------->
A--------------------------------------------->
D--------------------------------------------->

(second time) guitar 2
e--------------------------------------------->
B--------------------------------------------->
G-------------------------8~~----------------->
D-88~~---------66~~-------8~~----------------->
A-88~~---------66~~-------6~~----------------->
D-88~~---------66~~--------------------------->

guitar 1
e------------------------------1-1-1-4-1-2-1-->
B-xx2-4-2-4-xx-2-1-2-1-xx-1-2-4-4------------->
G--------------------------------------------->
D--------------------------------------------->
A--------------------------------------------->
D--------------------------------------------->

guitar 2
e--------------------------------------------->
B--------------------------------------------->
G-------------------------8~~------44444------>
D-88~~---------66~~-------8~~------44444------>
A-88~~---------66~~-------6~~------44444------>
D-88~~---------66~~----------------44444------>

verse 1: guitar 2
e---------------------------------------------------------->
B---------------------------------------------------------->
G-6-6-6-6-6-6-6-------------------------------------------->
D-6-6-6-6-6-6-6-6-6-6-6-6-6-6-8-8-8-8-8-8-8-4-4-4-4-4-4-4--> repeat
A-4-4-4-4-4-4-4-6-6-6-6-6-6-6-8-8-8-8-8-8-8-4-4-4-4-4-4-4-->
D---------------6-6-6-6-6-6-6-8-8-8-8-8-8-8-4-4-4-4-4-4-4-->
whoa-o I've been banging my head against the wall whoa-o for so long it
seems I knocked it down, yeah, it got knocked down whoa-o and the heating
bill went through the roof whoa-o and the wall I knocked down was the proof
that my landlord needed to kick me out I got

guitar 1
e-----4----->
B-6666-6---->
G-----------> repeat throughout the measure then do it again palm muted
D----------->
A----------->
D----------->

guitar 2
e---------------------------------------------------------->
B---------------------------------------------------------->
G-6666666666666--------------------------------------------> repeat
D-6666666666666-6666666666666-8888888888888-4444444444444--> p.m.'d
A-4444444444444-6666666666666-8888888888888-4444444444444-->
D---------------6666666666666-8888888888888-4444444444444-->
evicted now I'm living on the street my spirits lifted oh, wait, that
wasn't me too many turns have turned out to be wrong this time I learned
that I knew it all along

guitar 2
e-------------------------------------------->
B-------------------------------------------->
G-----------88888888-------------8888-------->
D-8888-6666-88888888---8888-6666-8888-4xxxx-->
A-8888-6666-66666666---8888-6666-6666-4xxxx-->
D-8888-6666------------8888-6666------4xxxx-->
when car crashes occur, I'll be what you were when I see that I should when
I see that its good, that its good

pre-chorus: guitar 2
e---------------------------------------->
B---------------------------------------->
G-6666-5555----------6666-5555----------->
D-6666-6666-44444444-6666-6666-44444444-->
A-4444-3333-44444444-4444-3333-44444444-->
D-----------44444444-----------44444444-->
to experience the bittersweet to taste defeat then brush my teeth
experience the bittersweet to taste defeat then brush my teeth

chorus 1: guitar 1                         then play:
e---1~~----1~~--->                        e---2~~---->
B--2------2------>                        B--2------->
G-1------3-------> alternate these        G-3-------->
D----------------> for chorus 1           D---------->
A---------------->                        A---------->
D---------------->                        D---------->
cuz I struggle with forward motion, cuz I struggle with forward motion we
all struggle with forward motion

guitar 2                                                - 1         - 2
e--------------------------------------------------------->----------->
B--------------------------------------------------------->----------->
G-6xxxxxxxxxxxx------------------------------------------->----------->
D-6xxxxxxxxxxxx-6xxxxxxxxxxxx-8xxxxxxxxxxxx-4xxxxxxxxxxxx->44-44-44-46>
A-4xxxxxxxxxxxx-6xxxxxxxxxxxx-8xxxxxxxxxxxx-4xxxxxxxxxxxx->44-44-44-46>
D---------------6xxxxxxxxxxxx-8xxxxxxxxxxxx-4xxxxxxxxxxxx->44-44-44-46>
cuz forward motion is harder than it sounds well every time I gain some
ground I gotta turn my self around again its harder than it sounds well
every time I gain some ground I gotta turn myself around again

verse 2: guitar 2
e------------------------------------------------------------->
B------------------------------------------------------------->
G-6-6-6-6-6-6-6-----------------------------------------------> repeat
D-6-6-6-6-6-6-6-6-6-6-6-6-6-6-8-8-8-8-8-8-8-4-4-4-4-4-4-4--3-->
A-4-4-4-4-4-4-4-6-6-6-6-6-6-6-8-8-8-8-8-8-8-4-4-4-4-4-4-4-4-4->
D---------------6-6-6-6-6-6-6-8-8-8-8-8-8-8-4-4-4-4-4-4-4----->
whoa-o I've been banging my head against the wall whoa-o for so long it
seems I got knocked out, yeah, got knocked out cold whoa-o and the medical
bills went through the roof whoa-o and the scar on my head is the proof
that I'll still remember this when I get old  I got

guitar 1
e-----4----->
B-6666-6---->
G-----------> repeat throughout the measure then do it again palm muted
D----------->
A----------->
D----------->

guitar 2
e---------------------------------------------------------->
B---------------------------------------------------------->
G-6666666666666--------------------------------------------> repeat
D-6666666666666-6666666666666-8888888888888-4444444444444--> p.m.'d
A-4444444444444-6666666666666-8888888888888-4444444444444-->
D---------------6666666666666-8888888888888-4444444444444-->
evicted now I'm living on the street my spirits lifted oh, wait, that
wasn't me too many turns have turned out to be wrong this time I learned
that I knew it all along

guitar 2
e-------------------------------------------->
B-------------------------------------------->
G-----------88888888-------------8888-------->
D-8888-6666-88888888---8888-6666-8888-4xxxx-->
A-8888-6666-66666666---8888-6666-6666-4xxxx-->
D-8888-6666------------8888-6666------4xxxx-->
when I grasp the concept and I'll sleep where you slept and I know I need
help when I allow myself, allow myself

chorus 2 is the same as chorus 1

chorus 3 is all guitar 2 with the same part as in 2 and 1 just no p.m.

outro: guitar 1
e--------------------------------------->
B-22-11-22-11-21-22-11-22-11-2-1-2~~---->
G--------------------------------------->
D--------------------------------------->
A--------------------------------------->
D--------------------------------------->

outro: guitar 2
e--------------------------------------->
B--------------------------------------->
G--------------------------------6~~---->
D-44-44-44-44-46-44-44-44-44-4-6-6~~---->
A-44-44-44-44-46-44-44-44-44-4-6-4~~---->
D-44-44-44-44-46-44-44-44-44-4-6-------->

then piano (cuz I struggle with forward motion, cuz I struggle with forward
motion we all struggle with forward motion)
Suggest correction
Give kudos to tab author, rate the tab!
1 2 3 4 5
comments
print report bad tab
2 comments total.
0 reply
shadowsnowfall 10 Jul 21, 2005 12:00 AM

actually dude its not in dropped D, BUT it is a very good interpretation.

0 reply
Citzn Soldier 7 10 Apr 17, 2010 01:38 PM

as someone said its not in drop D but your parts were right if it were.. however u put in oarts tht version 2 or ver 1 left out such as guitar 1s part in the chorus. a combination of tht versions notes where u had drop d and ur parts they left out and u have the song. so good job n e way

guest
You may want to rate the tab now too:
select rating
Wanna post a correction for this tab? Suggest correction