Oops, an error
Loading. Please wait.

From End To End Tab

version 2
version 2

Whole song

Interactive

1,650 views 1 this week
no commentswrite comment
1 2 3 4 5
excellent!
x 3
add to favorites
launch autoscroll
font size
0
reset
how to read this tab
guitar tuner
Autoscroll
slow
fast
+/-
esc
set tempo
stop
Help us to improve Ultimate-Guitar.com Take our survey!
×
Author
Difficulty
Tuning
novice
D A D G B E
tuning: gutiar 1 is standard, guitar 2 is drop d, guitar 3 is drop d, and
        acoustic is standard.

intro: guitar 1
e------------------------------------------------------------------------->
B------------------------------------------------------------------------->
G------------------------------------------------------------------------->
D-0/5555555555554----55554----5/7-77775-55554-55554-55554-2222------------>
A----------------2222-----2222--------------------------------333--------->
E------------------------------------------------------------------------->

intro: guitar 2
e------------------------------------------------------------------------->
B------------------------------------------------------------------------->
G--------------------444444444444-77777777777777777-666666666-555-----7xx->
D---------------2222-444444444444-77777777777777777-777777777-555-4xx-7xx->
A---------------2222-222222222222-55555555555555555-444444444-333-5xx-5xx->
D---------------2222----------------------------------------------4xx----->

verse 1 riff: gt.3           (repeat this\/) then:
e|:----------------------------------------:|>------------------>
B|:----------------------------------------:|>------------------>
G|:-9xxxxxxxx-4xxxxxxx/7xxxxxxxx-6xxxxxxxx-:|>-666-5555-----777->
D|:-9xxxxxxxx-4xxxxxxx/7xxxxxxxx-7xxxxxxxx-:|>-777-5555-444-777->
A|:-7xxxxxxxx-2xxxxxxx/5xxxxxxxx-4xxxxxxxx-:|>-444-3333-555-555->
D|:----------------------------------------:|>----------444----->
excuse me, but I've got a request could you take the gag off of my mouth I
admit that I'm fairly impressed cuz you're the best at blocking me out

repeat verse 1 riff again; guitar 1 comes in on this half of the intro:
e--------------------------------------------------------------------->
B--------------------------------------------------------------------->
G-4xxx5xxx4xxx5xxx4xx5x------------------2xxx0xxxxx2xxx0xxxxx2xxxxxx-->
D----------------------4xxx5xxxx4xxx5xxxx----------------------------->
A--------------------------------------------------------------------->
E--------------------------------------------------------------------->
                                                       repeat this/\

I believe that we weren't quite done I know it's hard to hear me out again
I realize you're not the only one who's terrified of life from end to end

pre-chorus: guitar 3
e------------------------------------------->
B-8xxxxx------------------------------------>
G-7xxxxx------------------------------------>
D-5xxxxx------------------------------------>
A------------------------------------------->
D------------------------------------------->

guitar 2
e-------333-3-3-3333------------------------>
B-------333-3-3-3333-8888------------------->
G-------444-4-4-5555-7777-6666-5555-----777->
D-------222-2-2-5555-7777-7777-5555-444-777->
A-------222-2-2-3333-5555-4444-3333-555-555->
D-------222-2-2---------------------444----->
hey hey, can you hear anything I say I'm feeling unwanted, that's not what
I wanted and attention to me is something you refuse to pay

chorus: guitar 1
e------------------------------------------------------------------>
B-888887----------------------------------------------------------->
G------------------------------------------------------------------>
D-555554----------------------------------------------------------->
A------------------------------------------------------------------>
E------------------------------------------------------------------>
cuz I just can't believe the

guitar 2
e------------------------------------------------------------------>
B-------88888-------------------------5-8-------------------------->
G-------77777-5xxxx----------5xxxx-7--4-7-5555------7777--5555----->
D-------55555-5xxxx-5xxxxxxx-5xxxx-7--2-5-5555-5555-7777--5555-5~~->
A-------55555-3xxxx-5xxxxxxx-3xxxx-5--2-5-3333-5555-5555--3333-5~~->
D-------55555-------5xxxxxxx----------2-5------5555------------5~~->
        way that this continues to go on I say I wish you didn't always think I'm wrong 
tell me tell me what will it take to get this through your head and tell me what will it take

guitar 1
e-------------------------->
B-8-----7-----8-----8------>
G--7-----7-----7-----7----->
D----5-----5-----5-----5--->
A-------------------------->
E-------------------------->

guitar 3
e-------------------------->
B-------------------------->
G----7-----7-----5~~------->
D--5-----5-----5----------->
A-7-----5-----3------------>
D-------------------------->
until you see things through from end to end

fill in: guitar 2 (guitar 1 repeats it's intro part)
e-333332000-333332000----------------------------------->
B-333333333-xxxxxxxxx-8888788887-88887555--------------->
G-444444444-444444444-7777777777-66666666-55555-----777->
D-222222222-444444444-7777777777-77777777-55555-444-777->
A-222222222-222222222-5555555555-44444444-33333-555-555->
D-222222222-------------------------------------444----->

verse 2: repeat the second half of the first verse (where guitar 1 comes in)
excuse me but isn't this the way that things always turn into something
good you tried to ignore the things I say but in the end you found you
never could

pre-chorus 2: acoustic
e---3-33-3-33-3---3-33-3-33-3-->
B---3-33-3-33-3---3-33-3-33-3-->
G---4-44-4-44-4---4-44-4-44-4-->
D-2-2-22-2-22-2---x-xx-x-xx-x-->
A---------------3-3-33-3-33-3-->
E------------------------------>
hey hey, can you hear anything I say?

guitar 2
e---------------333333--------->
B-888888-888888-333333--------->
G-777777-777777-555555-----777->
D-555555-444444-555555-444-777->
A-555555-555555-333333-555-555->
D-555555-444444--------444----->
you search for the short cut, you live life but for what I love you and
hope you will find the truth someday

repeat chorus; end it with this:                ___________
                                   ____________/repeat this\__________
guitar 3:                        \/                                   \
e-------------------------------------------------------------------->|
B-------------------------------------------------------------------->|
G-4xxxxxxxxxxxxxxxxxxxxxxxxxxxxxxxxxxxxxxxxxxxxxxxx7xxxxxxxxxxxxxxxx->|
D-5xxxxxxxxxxxxxxxxxxxxxxxxxxxxxxxxxxxxxxxxxxxxxxxx5xxxxxxxxxxxxxxxx->|
A-------------------------------------------------------------------->|
D-------------------------------------------------------------------->|
                                 |                                    |
guitar 2                         |                                    |
e---------------------333-3-3~~-------------------------------------->|
B--------333-3-3~~----333-3-3~~-------------------------------------->|
G--------444-4-4~~----555-5-5~~-------------------------------------->|
D--------222-2-2~~----555-5-5~~-------------------------------------->|
A--------222-2-2~~----333-3-3~~--------0xxxx2x----------0xxxx2x------>|
D--------222-2-2~~----------------5xxxx-------2xxxx5xxxx-------2xxxx->|
                                 /\___________________________________/
last chorus: guitar 2
e--------------------------------------------------------------------->
B-5-8------------------------------------------------------------8~~-->
G-4-7-5555-------7777--5555-------2xxxx-------5~~------777--5555-7~~-->
D-2-5-5555-55555-7777--5555-5xxxx-2xxxx-2xxxx-5~~-5555-777--5555-5~~-->
A-2-5-3333-55555-5555--3333-5xxxx-0xxxx-2xxxx-3~~-5555-555--3333-5~~-->
D-2-5------55555------------5xxxx-------2xxxx-----5555-----------5~~-->
      so tell me tell me what will it take to get this through your head and tell me 
will it take to get you on my good side again and tell me what will it take

guitar 1
e--------------------------------------------------------------->
B-8-----7-----8-----8-----8-----7-----8-----8-----7-----8------->
G--7-----7-----7-----7-----7-----7-----7-----7-----7-----7------>
D----5-----5-----5-----5-----5-----5-----5-----5-----5-----5---->
A--------------------------------------------------------------->
E--------------------------------------------------------------->

guitar 3
e-----------------------7\-------------------------------------->
B--------------------8-7---------------------------------------->
G----7-----7--7/9-7-5--------7-----7-5-4bbb----7-----7-----5~~-->
D--5-----5-----------------5-----5-----------5-----5-----5------>
A-7-----5-----------------7-----5-----------7-----5-----3------->
D--------------------------------------------------------------->
to forget what you knew just let Him find you then you'll see things
through from end to end

outro: guitar 1
e-------------------------------->
B-8-----8-----7------5555-5~~---->
G--7-----7------7---------------->
D----5-----5------5-------------->
A-------------------------------->
E-------------------------------->

outro: guitar 2
e--------------------3333-3~~---->
B--------------------3333-3~~---->
G--------------------4444-4~~---->
D--------------------2222-2~~---->
A--------------------2222-2~~---->
D--------------------2222-2~~---->
Suggest correction
Give kudos to tab author, rate the tab!
1 2 3 4 5
comments
print report bad tab
guest
You may want to rate the tab now too:
select rating
Wanna post a correction for this tab? Suggest correction